  0
SECTION
  2
HEADER
  9
$ACADVER
  1
AC1021
  9
$ACADMAINTVER
 70
    25
  9
$DWGCODEPAGE
  3
ANSI_1252
  9
$INSBASE
 10
0.0
 20
0.0
 30
0.0
  9
$EXTMIN
 10
1.000000000000000E+20
 20
1.000000000000000E+20
 30
1.000000000000000E+20
  9
$EXTMAX
 10
-1.000000000000000E+20
 20
-1.000000000000000E+20
 30
-1.000000000000000E+20
  9
$LIMMIN
 10
0.0
 20
0.0
  9
$LIMMAX
 10
12.0
 20
9.0
  9
$ORTHOMODE
 70
     0
  9
$REGENMODE
 70
     1
  9
$FILLMODE
 70
     1
  9
$QTEXTMODE
 70
     0
  9
$MIRRTEXT
 70
     1
  9
$LTSCALE
 40
1.0
  9
$ATTMODE
 70
     1
  9
$TEXTSIZE
 40
0.2
  9
$TRACEWID
 40
0.05
  9
$TEXTSTYLE
  7
Standard
  9
$CLAYER
  8
0
  9
$CELTYPE
  6
ByLayer
  9
$CECOLOR
 62
    18
  9
$CELTSCALE
 40
1.0
  9
$DISPSILH
 70
     0
  9
$DIMSCALE
 40
1.0
  9
$DIMASZ
 40
2.5
  9
$DIMEXO
 40
0.625
  9
$DIMDLI
 40
0.38
  9
$DIMRND
 40
0.0
  9
$DIMDLE
 40
0.0
  9
$DIMEXE
 40
1.25
  9
$DIMTP
 40
0.0
  9
$DIMTM
 40
0.0
  9
$DIMTXT
 40
2.5
  9
$DIMCEN
 40
0.09
  9
$DIMTSZ
 40
0.0
  9
$DIMTOL
 70
     0
  9
$DIMLIM
 70
     0
  9
$DIMTIH
 70
     1
  9
$DIMTOH
 70
     1
  9
$DIMSE1
 70
     0
  9
$DIMSE2
 70
     0
  9
$DIMTAD
 70
     0
  9
$DIMZIN
 70
     8
  9
$DIMBLK
  1

  9
$DIMASO
 70
     1
  9
$DIMSHO
 70
     1
  9
$DIMPOST
  1

  9
$DIMAPOST
  1

  9
$DIMALT
 70
     0
  9
$DIMALTD
 70
     2
  9
$DIMALTF
 40
25.4
  9
$DIMLFAC
 40
1.0
  9
$DIMTOFL
 70
     0
  9
$DIMTVP
 40
0.0
  9
$DIMTIX
 70
     0
  9
$DIMSOXD
 70
     0
  9
$DIMSAH
 70
     0
  9
$DIMBLK1
  1

  9
$DIMBLK2
  1

  9
$DIMSTYLE
  2
Standard
  9
$DIMCLRD
 70
    18
  9
$DIMCLRE
 70
    18
  9
$DIMCLRT
 70
    18
  9
$DIMTFAC
 40
1.0
  9
$DIMGAP
 40
0.625
  9
$DIMJUST
 70
     0
  9
$DIMSD1
 70
     0
  9
$DIMSD2
 70
     0
  9
$DIMTOLJ
 70
     1
  9
$DIMTZIN
 70
     0
  9
$DIMALTZ
 70
     0
  9
$DIMALTTZ
 70
     0
  9
$DIMUPT
 70
     0
  9
$DIMDEC
 70
     4
  9
$DIMTDEC
 70
     4
  9
$DIMALTU
 70
     2
  9
$DIMALTTD
 70
     2
  9
$DIMTXSTY
  7
Standard
  9
$DIMAUNIT
 70
     0
  9
$DIMADEC
 70
     0
  9
$DIMALTRND
 40
0.0
  9
$DIMAZIN
 70
     2
  9
$DIMDSEP
 70
    46
  9
$DIMATFIT
 70
     3
  9
$DIMFRAC
 70
     0
  9
$DIMLDRBLK
  1

  9
$DIMLUNIT
 70
     2
  9
$DIMLWD
 70
    -2
  9
$DIMLWE
 70
    -2
  9
$DIMTMOVE
 70
     0
  9
$DIMFXL
 40
1.0
  9
$DIMFXLON
 70
     0
  9
$DIMJOGANG
 40
0.7853981633974483
  9
$DIMTFILL
 70
     0
  9
$DIMTFILLCLR
 70
     0
  9
$DIMARCSYM
 70
     0
  9
$DIMLTYPE
  6

  9
$DIMLTEX1
  6

  9
$DIMLTEX2
  6

  9
$LUNITS
 70
     2
  9
$LUPREC
 70
     4
  9
$SKETCHINC
 40
0.1
  9
$FILLETRAD
 40
0.5
  9
$AUNITS
 70
     0
  9
$AUPREC
 70
     0
  9
$MENU
  1
.
  9
$ELEVATION
 40
0.0
  9
$PELEVATION
 40
0.0
  9
$THICKNESS
 40
0.0
  9
$LIMCHECK
 70
     0
  9
$CHAMFERA
 40
0.0
  9
$CHAMFERB
 40
0.0
  9
$CHAMFERC
 40
0.0
  9
$CHAMFERD
 40
0.0
  9
$SKPOLY
 70
     0
  9
$TDCREATE
 40
2457308.321040393
  9
$TDUCREATE
 40
2457308.23770706
  9
$TDUPDATE
 40
2457308.321040579
  9
$TDUUPDATE
 40
2457308.237707245
  9
$TDINDWG
 40
0.0000000116
  9
$TDUSRTIMER
 40
0.0000000116
  9
$USRTIMER
 70
     1
  9
$ANGBASE
 50
0.0
  9
$ANGDIR
 70
     0
  9
$PDMODE
 70
     0
  9
$PDSIZE
 40
0.0
  9
$PLINEWID
 40
0.0
  9
$SPLFRAME
 70
     0
  9
$SPLINETYPE
 70
     6
  9
$SPLINESEGS
 70
     8
  9
$HANDSEED
  5
37E8
  9
$SURFTAB1
 70
     6
  9
$SURFTAB2
 70
     6
  9
$SURFTYPE
 70
     6
  9
$SURFU
 70
     6
  9
$SURFV
 70
     6
  9
$UCSBASE
  2

  9
$UCSNAME
  2

  9
$UCSORG
 10
0.0
 20
0.0
 30
0.0
  9
$UCSXDIR
 10
1.0
 20
0.0
 30
0.0
  9
$UCSYDIR
 10
0.0
 20
1.0
 30
0.0
  9
$UCSORTHOREF
  2

  9
$UCSORTHOVIEW
 70
     0
  9
$UCSORGTOP
 10
0.0
 20
0.0
 30
0.0
  9
$UCSORGBOTTOM
 10
0.0
 20
0.0
 30
0.0
  9
$UCSORGLEFT
 10
0.0
 20
0.0
 30
0.0
  9
$UCSORGRIGHT
 10
0.0
 20
0.0
 30
0.0
  9
$UCSORGFRONT
 10
0.0
 20
0.0
 30
0.0
  9
$UCSORGBACK
 10
0.0
 20
0.0
 30
0.0
  9
$PUCSBASE
  2

  9
$PUCSNAME
  2

  9
$PUCSORG
 10
0.0
 20
0.0
 30
0.0
  9
$PUCSXDIR
 10
1.0
 20
0.0
 30
0.0
  9
$PUCSYDIR
 10
0.0
 20
1.0
 30
0.0
  9
$PUCSORTHOREF
  2

  9
$PUCSORTHOVIEW
 70
     0
  9
$PUCSORGTOP
 10
0.0
 20
0.0
 30
0.0
  9
$PUCSORGBOTTOM
 10
0.0
 20
0.0
 30
0.0
  9
$PUCSORGLEFT
 10
0.0
 20
0.0
 30
0.0
  9
$PUCSORGRIGHT
 10
0.0
 20
0.0
 30
0.0
  9
$PUCSORGFRONT
 10
0.0
 20
0.0
 30
0.0
  9
$PUCSORGBACK
 10
0.0
 20
0.0
 30
0.0
  9
$USERI1
 70
     0
  9
$USERI2
 70
     0
  9
$USERI3
 70
     0
  9
$USERI4
 70
     0
  9
$USERI5
 70
     0
  9
$USERR1
 40
0.0
  9
$USERR2
 40
0.0
  9
$USERR3
 40
0.0
  9
$USERR4
 40
0.0
  9
$USERR5
 40
0.0
  9
$WORLDVIEW
 70
     1
  9
$SHADEDGE
 70
     3
  9
$SHADEDIF
 70
    70
  9
$TILEMODE
 70
     1
  9
$MAXACTVP
 70
    64
  9
$PINSBASE
 10
0.0
 20
0.0
 30
0.0
  9
$PLIMCHECK
 70
     0
  9
$PEXTMIN
 10
1.000000000000000E+20
 20
1.000000000000000E+20
 30
1.000000000000000E+20
  9
$PEXTMAX
 10
-1.000000000000000E+20
 20
-1.000000000000000E+20
 30
-1.000000000000000E+20
  9
$PLIMMIN
 10
0.0
 20
0.0
  9
$PLIMMAX
 10
12.0
 20
9.0
  9
$UNITMODE
 70
     0
  9
$VISRETAIN
 70
     1
  9
$PLINEGEN
 70
     0
  9
$PSLTSCALE
 70
     1
  9
$TREEDEPTH
 70
  3020
  9
$CMLSTYLE
  2
Standard
  9
$CMLJUST
 70
     0
  9
$CMLSCALE
 40
1.0
  9
$PROXYGRAPHICS
 70
     1
  9
$MEASUREMENT
 70
     1
  9
$CELWEIGHT
370
    -1
  9
$ENDCAPS
280
     0
  9
$JOINSTYLE
280
     0
  9
$LWDISPLAY
290
     0
  9
$INSUNITS
 70
     4
  9
$HYPERLINKBASE
  1

  9
$STYLESHEET
  1

  9
$XEDIT
290
     1
  9
$CEPSNTYPE
380
     0
  9
$PSTYLEMODE
290
     1
  9
$FINGERPRINTGUID
  2
{6F01F52C-7D08-48C7-B848-5311C7595AE3}
  9
$VERSIONGUID
  2
{FAEB1C32-E019-11D5-929B-00C0DF256EC4}
  9
$EXTNAMES
290
     1
  9
$PSVPSCALE
 40
0.0
  9
$OLESTARTUP
290
     0
  9
$SORTENTS
280
   127
  9
$INDEXCTL
280
     0
  9
$HIDETEXT
280
     1
  9
$XCLIPFRAME
290
     0
  9
$HALOGAP
280
     0
  9
$OBSCOLOR
 70
   257
  9
$OBSLTYPE
280
     0
  9
$INTERSECTIONDISPLAY
280
     0
  9
$INTERSECTIONCOLOR
 70
   257
  9
$DIMASSOC
280
     2
  9
$PROJECTNAME
  1

  9
$CAMERADISPLAY
290
     0
  9
$LENSLENGTH
 40
50.0
  9
$CAMERAHEIGHT
 40
0.0
  9
$STEPSPERSEC
 40
2.0
  9
$STEPSIZE
 40
6.0
  9
$3DDWFPREC
 40
2.0
  9
$PSOLWIDTH
 40
0.25
  9
$PSOLHEIGHT
 40
4.0
  9
$LOFTANG1
 40
1.570796326794897
  9
$LOFTANG2
 40
1.570796326794897
  9
$LOFTMAG1
 40
0.0
  9
$LOFTMAG2
 40
0.0
  9
$LOFTPARAM
 70
     7
  9
$LOFTNORMALS
280
     1
  9
$LATITUDE
 40
37.795
  9
$LONGITUDE
 40
-122.394
  9
$NORTHDIRECTION
 40
0.0
  9
$TIMEZONE
 70
 -8000
  9
$LIGHTGLYPHDISPLAY
280
     1
  9
$TILEMODELIGHTSYNCH
280
     1
  9
$CMATERIAL
347
3742
  9
$SOLIDHIST
280
     1
  9
$SHOWHIST
280
     1
  9
$DWFFRAME
280
     2
  9
$DGNFRAME
280
     2
  9
$REALWORLDSCALE
290
     1
  9
$INTERFERECOLOR
 62
   256
  9
$CSHADOW
280
     0
  9
$SHADOWPLANELOCATION
 40
0.0
  0
ENDSEC
  0
SECTION
  2
CLASSES
  0
CLASS
  1
ACDBDICTIONARYWDFLT
  2
AcDbDictionaryWithDefault
  3
ObjectDBX Classes
 90
        0
 91
        4
280
     0
281
     0
  0
CLASS
  1
VISUALSTYLE
  2
AcDbVisualStyle
  3
ObjectDBX Classes
 90
     4095
 91
        4
280
     0
281
     0
  0
CLASS
  1
MATERIAL
  2
AcDbMaterial
  3
ObjectDBX Classes
 90
     1153
 91
        4
280
     0
281
     0
  0
CLASS
  1
SCALE
  2
AcDbScale
  3
ObjectDBX Classes
 90
     1153
 91
        4
280
     0
281
     0
  0
CLASS
  1
SUN
  2
AcDbSun
  3
SCENEOE
 90
     1153
 91
        4
280
     0
281
     0
  0
CLASS
  1
DICTIONARYVAR
  2
AcDbDictionaryVar
  3
ObjectDBX Classes
 90
        0
 91
        4
280
     0
281
     0
  0
ENDSEC
  0
SECTION
  2
TABLES
  0
TABLE
  2
VPORT
  5
3707
330
0
100
AcDbSymbolTable
 70
     1
  0
VPORT
  5
3727
330
3707
100
AcDbSymbolTableRecord
100
AcDbViewportTableRecord
  2
*Active
 70
     0
 10
0.0
 20
0.0
 11
1.0
 21
1.0
 12
10.42990654205607
 22
4.5
 13
0.0
 23
0.0
 14
0.5
 24
0.5
 15
0.5
 25
0.5
 16
0.0
 26
0.0
 36
1.0
 17
0.0
 27
0.0
 37
0.0
 40
9.0
 41
1.972972972850329
 42
50.0
 43
0.0
 44
0.0
 50
0.0
 51
0.0
 71
     0
 72
   100
 73
     1
 74
     3
 75
     0
 76
     0
 77
     0
 78
     0
281
     0
 65
     1
110
0.0
120
0.0
130
0.0
111
1.0
121
0.0
131
0.0
112
0.0
122
1.0
132
0.0
 79
     0
146
0.0
 60
     3
 61
     5
292
     1
282
     1
141
0.0
142
0.0
 63
   250
361
3767
  0
ENDTAB
  0
TABLE
  2
LTYPE
  5
3704
330
0
100
AcDbSymbolTable
 70
    19
  0
LTYPE
  5
3712
330
3704
100
AcDbSymbolTableRecord
100
AcDbLinetypeTableRecord
  2
ByBlock
 70
     0
  3

 72
    65
 73
     0
 40
0.0
  0
LTYPE
  5
3713
330
3704
100
AcDbSymbolTableRecord
100
AcDbLinetypeTableRecord
  2
ByLayer
 70
     0
  3

 72
    65
 73
     0
 40
0.0
  0
LTYPE
  5
3714
330
3704
100
AcDbSymbolTableRecord
100
AcDbLinetypeTableRecord
  2
Continuous
 70
     0
  3
Solid line
 72
    65
 73
     0
 40
0.0
  0
LTYPE
  5
3796
330
3704
100
AcDbSymbolTableRecord
100
AcDbLinetypeTableRecord
  2
BORDER
 70
     0
  3

 72
    65
 73
     6
 40
42.00000000000001
 49
12.0
 74
     0
 49
-6.0
 74
     0
 49
12.0
 74
     0
 49
-5.95
 74
     0
 49
0.1
 74
     0
 49
-5.95
 74
     0
  0
LTYPE
  5
3797
330
3704
100
AcDbSymbolTableRecord
100
AcDbLinetypeTableRecord
  2
BORDER2
 70
     0
  3

 72
    65
 73
     6
 40
21.0
 49
6.0
 74
     0
 49
-3.0
 74
     0
 49
6.0
 74
     0
 49
-2.95
 74
     0
 49
0.1
 74
     0
 49
-2.95
 74
     0
  0
LTYPE
  5
3798
330
3704
100
AcDbSymbolTableRecord
100
AcDbLinetypeTableRecord
  2
BORDERX2
 70
     0
  3

 72
    65
 73
     6
 40
84.0
 49
24.0
 74
     0
 49
-12.0
 74
     0
 49
24.0
 74
     0
 49
-11.95
 74
     0
 49
0.1
 74
     0
 49
-11.95
 74
     0
  0
LTYPE
  5
3799
330
3704
100
AcDbSymbolTableRecord
100
AcDbLinetypeTableRecord
  2
CENTER
 70
     0
  3

 72
    65
 73
     4
 40
50.0
 49
32.0
 74
     0
 49
-6.0
 74
     0
 49
6.0
 74
     0
 49
-6.0
 74
     0
  0
LTYPE
  5
379A
330
3704
100
AcDbSymbolTableRecord
100
AcDbLinetypeTableRecord
  2
CENTER2
 70
     0
  3

 72
    65
 73
     4
 40
25.0
 49
16.0
 74
     0
 49
-3.0
 74
     0
 49
3.0
 74
     0
 49
-3.0
 74
     0
  0
LTYPE
  5
379B
330
3704
100
AcDbSymbolTableRecord
100
AcDbLinetypeTableRecord
  2
CENTERX2
 70
     0
  3

 72
    65
 73
     4
 40
100.0
 49
64.0
 74
     0
 49
-12.0
 74
     0
 49
12.0
 74
     0
 49
-12.0
 74
     0
  0
LTYPE
  5
379C
330
3704
100
AcDbSymbolTableRecord
100
AcDbLinetypeTableRecord
  2
DASHDOT
 70
     0
  3

 72
    65
 73
     4
 40
24.0
 49
12.0
 74
     0
 49
-5.95
 74
     0
 49
0.1
 74
     0
 49
-5.95
 74
     0
  0
LTYPE
  5
379D
330
3704
100
AcDbSymbolTableRecord
100
AcDbLinetypeTableRecord
  2
DASHDOT2
 70
     0
  3

 72
    65
 73
     4
 40
12.0
 49
6.0
 74
     0
 49
-2.95
 74
     0
 49
0.1
 74
     0
 49
-2.95
 74
     0
  0
LTYPE
  5
379E
330
3704
100
AcDbSymbolTableRecord
100
AcDbLinetypeTableRecord
  2
DASHDOTX2
 70
     0
  3

 72
    65
 73
     4
 40
48.0
 49
24.0
 74
     0
 49
-11.95
 74
     0
 49
0.1
 74
     0
 49
-11.95
 74
     0
  0
LTYPE
  5
379F
330
3704
100
AcDbSymbolTableRecord
100
AcDbLinetypeTableRecord
  2
DASHED
 70
     0
  3

 72
    65
 73
     2
 40
18.0
 49
12.0
 74
     0
 49
-6.0
 74
     0
  0
LTYPE
  5
37A0
330
3704
100
AcDbSymbolTableRecord
100
AcDbLinetypeTableRecord
  2
DASHED2
 70
     0
  3

 72
    65
 73
     2
 40
9.0
 49
6.0
 74
     0
 49
-3.0
 74
     0
  0
LTYPE
  5
37A1
330
3704
100
AcDbSymbolTableRecord
100
AcDbLinetypeTableRecord
  2
DASHEDX2
 70
     0
  3

 72
    65
 73
     2
 40
36.0
 49
24.0
 74
     0
 49
-12.0
 74
     0
  0
LTYPE
  5
37A2
330
3704
100
AcDbSymbolTableRecord
100
AcDbLinetypeTableRecord
  2
DIVIDE
 70
     0
  3

 72
    65
 73
     6
 40
29.99999999999999
 49
12.0
 74
     0
 49
-5.9
 74
     0
 49
0.15
 74
     0
 49
-5.9
 74
     0
 49
0.15
 74
     0
 49
-5.9
 74
     0
  0
LTYPE
  5
37A3
330
3704
100
AcDbSymbolTableRecord
100
AcDbLinetypeTableRecord
  2
DIVIDE2
 70
     0
  3

 72
    65
 73
     6
 40
15.0
 49
6.0
 74
     0
 49
-2.9
 74
     0
 49
0.15
 74
     0
 49
-2.9
 74
     0
 49
0.15
 74
     0
 49
-2.9
 74
     0
  0
LTYPE
  5
37A4
330
3704
100
AcDbSymbolTableRecord
100
AcDbLinetypeTableRecord
  2
DIVIDEX2
 70
     0
  3

 72
    65
 73
     6
 40
59.99999999999999
 49
24.0
 74
     0
 49
-11.9
 74
     0
 49
0.15
 74
     0
 49
-11.9
 74
     0
 49
0.15
 74
     0
 49
-11.9
 74
     0
  0
LTYPE
  5
37A5
330
3704
100
AcDbSymbolTableRecord
100
AcDbLinetypeTableRecord
  2
DOT
 70
     0
  3

 72
    65
 73
     2
 40
6.3
 49
0.1
 74
     0
 49
-6.2
 74
     0
  0
LTYPE
  5
37A6
330
3704
100
AcDbSymbolTableRecord
100
AcDbLinetypeTableRecord
  2
DOT2
 70
     0
  3

 72
    65
 73
     2
 40
3.2
 49
0.1
 74
     0
 49
-3.1
 74
     0
  0
LTYPE
  5
37A7
330
3704
100
AcDbSymbolTableRecord
100
AcDbLinetypeTableRecord
  2
DOTX2
 70
     0
  3

 72
    65
 73
     2
 40
12.5
 49
0.1
 74
     0
 49
-12.4
 74
     0
  0
ENDTAB
  0
TABLE
  2
LAYER
  5
3701
330
0
100
AcDbSymbolTable
 70
    11
  0
LAYER
  5
370F
330
3701
100
AcDbSymbolTableRecord
100
AcDbLayerTableRecord
  2
0
 70
     0
 62
    18
420
        0
  6
Continuous
370
    25
390
370E
347
3744
  0
LAYER
  5
37A8
330
3701
100
AcDbSymbolTableRecord
100
AcDbLayerTableRecord
  2
Anlasern
 70
     0
 62
     2
420
 16776960
  6
Continuous
370
    25
390
370E
347
3744
  0
LAYER
  5
37A9
330
3701
100
AcDbSymbolTableRecord
100
AcDbLayerTableRecord
  2
WR Halter
 70
     0
 62
     6
420
 16711935
  6
Continuous
370
    35
390
370E
347
3744
  0
LAYER
  5
37AA
330
3701
100
AcDbSymbolTableRecord
100
AcDbLayerTableRecord
  2
Boardhalter
 70
     0
 62
     5
420
      255
  6
Continuous
370
    35
390
370E
347
3744
  0
LAYER
  5
37AB
330
3701
100
AcDbSymbolTableRecord
100
AcDbLayerTableRecord
  2
Rueckwand
 70
     0
 62
     5
420
      255
  6
Continuous
370
    35
390
370E
347
3744
  0
LAYER
  5
37AC
330
3701
100
AcDbSymbolTableRecord
100
AcDbLayerTableRecord
  2
Batthalter oben
 70
     0
 62
     3
420
    65280
  6
Continuous
370
    35
390
370E
347
3744
  0
LAYER
  5
37AD
330
3701
100
AcDbSymbolTableRecord
100
AcDbLayerTableRecord
  2
Haube
 70
     0
 62
     5
420
      255
  6
Continuous
370
    35
390
370E
347
3744
  0
LAYER
  5
37AE
330
3701
100
AcDbSymbolTableRecord
100
AcDbLayerTableRecord
  2
Deckel unten
 70
     0
 62
     5
420
      255
  6
Continuous
370
    35
390
370E
347
3744
  0
LAYER
  5
37AF
330
3701
100
AcDbSymbolTableRecord
100
AcDbLayerTableRecord
  2
Batteriehalter
 70
     0
 62
     5
420
      255
  6
Continuous
370
    35
390
370E
347
3744
  0
LAYER
  5
37B0
330
3701
100
AcDbSymbolTableRecord
100
AcDbLayerTableRecord
  2
Dekoblech
 70
     0
 62
     4
420
    65535
  6
Continuous
370
    35
390
370E
347
3744
  0
LAYER
  5
37B1
330
3701
100
AcDbSymbolTableRecord
100
AcDbLayerTableRecord
  2
Deckel oben
 70
     0
 62
     5
420
      255
  6
Continuous
370
    35
390
370E
347
3744
  0
ENDTAB
  0
TABLE
  2
STYLE
  5
3702
330
0
100
AcDbSymbolTable
 70
     1
  0
STYLE
  5
3710
330
3702
100
AcDbSymbolTableRecord
100
AcDbTextStyleTableRecord
  2
Standard
 70
     0
 40
0.0
 41
1.0
 50
0.0
 71
     0
 42
0.2
  3
txt
  4

  0
ENDTAB
  0
TABLE
  2
VIEW
  5
3705
330
0
100
AcDbSymbolTable
 70
     0
  0
ENDTAB
  0
TABLE
  2
UCS
  5
3706
330
0
100
AcDbSymbolTable
 70
     0
  0
ENDTAB
  0
TABLE
  2
APPID
  5
3708
330
0
100
AcDbSymbolTable
 70
     2
  0
APPID
  5
3711
330
3708
100
AcDbSymbolTableRecord
100
AcDbRegAppTableRecord
  2
ACAD
 70
     0
  0
APPID
  5
3768
330
3708
100
AcDbSymbolTableRecord
100
AcDbRegAppTableRecord
  2
QCAD
 70
     0
  0
ENDTAB
  0
TABLE
  2
DIMSTYLE
  5
3709
330
0
100
AcDbSymbolTable
 70
     2
100
AcDbDimStyleTable
  0
DIMSTYLE
105
3725
330
3709
100
AcDbSymbolTableRecord
100
AcDbDimStyleTableRecord
  2
Standard
 70
     0
178
     0
340
3710
  0
DIMSTYLE
105
3795
330
3709
100
AcDbSymbolTableRecord
100
AcDbDimStyleTableRecord
  2
QCADDimStyle
 70
     0
 41
2.5
 42
0.625
 44
1.25
 73
     0
 77
     1
140
2.5
147
0.625
178
     0
340
3710
  0
ENDTAB
  0
TABLE
  2
BLOCK_RECORD
  5
3700
330
0
100
AcDbSymbolTable
 70
     1
  0
BLOCK_RECORD
  5
371D
330
3700
100
AcDbSymbolTableRecord
100
AcDbBlockTableRecord
  2
*Model_Space
340
3720
 70
     0
280
     1
281
     0
  0
BLOCK_RECORD
  5
3719
330
3700
100
AcDbSymbolTableRecord
100
AcDbBlockTableRecord
  2
*Paper_Space
340
371C
 70
     0
280
     1
281
     0
  0
BLOCK_RECORD
  5
3721
330
3700
100
AcDbSymbolTableRecord
100
AcDbBlockTableRecord
  2
*Paper_Space0
340
3724
 70
     0
280
     1
281
     0
  0
ENDTAB
  0
ENDSEC
  0
SECTION
  2
BLOCKS
  0
BLOCK
  5
371E
330
371D
100
AcDbEntity
  8
0
100
AcDbBlockBegin
  2
*Model_Space
 70
     0
 10
0.0
 20
0.0
 30
0.0
  3
*Model_Space
  1
*Model_Space
  0
ENDBLK
  5
371F
330
371D
100
AcDbEntity
  8
0
100
AcDbBlockEnd
  0
BLOCK
  5
371A
330
3719
100
AcDbEntity
 67
     1
  8
0
100
AcDbBlockBegin
  2
*Paper_Space
 70
     0
 10
0.0
 20
0.0
 30
0.0
  3
*Paper_Space
  1
*Paper_Space
  0
ENDBLK
  5
371B
330
3719
100
AcDbEntity
 67
     1
  8
0
100
AcDbBlockEnd
  0
BLOCK
  5
3722
330
3721
100
AcDbEntity
  8
0
100
AcDbBlockBegin
  2
*Paper_Space0
 70
     0
 10
0.0
 20
0.0
 30
0.0
  3
*Paper_Space0
  1
*Paper_Space0
  0
ENDBLK
  5
3723
330
3721
100
AcDbEntity
  8
0
100
AcDbBlockEnd
  0
ENDSEC
  0
SECTION
  2
ENTITIES
  0
ARC
  5
8C
330
371D
100
AcDbEntity
  8
Rueckwand
100
AcDbCircle
 10
-497.9551185404849
 20
332.5916944824461
 30
0.0
 40
15.0
100
AcDbArc
 50
90.0
 51
180.0169908221299
  0
ARC
  5
8D
330
371D
100
AcDbEntity
  8
Rueckwand
100
AcDbCircle
 10
-497.8046634453877
 20
-302.2996449658303
 30
0.0
 40
15.0
100
AcDbArc
 50
180.0169908221299
 51
270.0169908221397
  0
ARC
  5
9A
330
371D
100
AcDbEntity
  8
Rueckwand
100
AcDbCircle
 10
497.9023904732571
 20
-302.1684841910454
 30
0.0
 40
15.0
100
AcDbArc
 50
270.0
 51
0.0169908221298804
  0
ARC
  5
9B
330
371D
100
AcDbEntity
  8
Rueckwand
100
AcDbCircle
 10
497.7393842591335
 20
332.7228553234575
 30
0.0
 40
15.0
100
AcDbArc
 50
0.0169908221298804
 51
90.01699082213976
  0
CIRCLE
  5
AA
330
371D
100
AcDbEntity
  8
Rueckwand
100
AcDbCircle
 10
-482.0687244436286
 20
259.0474426838648
 30
0.0
 40
1.613737626879905
  0
CIRCLE
  5
AE
330
371D
100
AcDbEntity
  8
Rueckwand
100
AcDbCircle
 10
482.1267589701251
 20
259.2168566018363
 30
0.0
 40
1.7
  0
CIRCLE
  5
AF
330
371D
100
AcDbEntity
  8
Rueckwand
100
AcDbCircle
 10
482.1962028080109
 20
-214.9589045647076
 30
0.0
 40
1.7
  0
ARC
  5
104
330
371D
100
AcDbEntity
  8
Rueckwand
100
AcDbCircle
 10
-148.9651352876861
 20
323.1122117668705
 30
0.0
 40
3.199999999999987
100
AcDbArc
 50
24.97496536765974
 51
155.0250346323402
  0
ARC
  5
106
330
371D
100
AcDbEntity
  8
Rueckwand
100
AcDbCircle
 10
151.1590677915445
 20
323.1329897633823
 30
0.0
 40
3.199999999999987
100
AcDbArc
 50
24.97496536765974
 51
155.0250346323402
  0
ARC
  5
13C
330
371D
100
AcDbEntity
  8
Haube
100
AcDbCircle
 10
224.4963350339234
 20
345.1022655818762
 30
0.0
 40
20.0
100
AcDbArc
 50
0.0
 51
90.0
  0
ARC
  5
13D
330
371D
100
AcDbEntity
  8
Haube
100
AcDbCircle
 10
-224.5903772717578
 20
-314.8045233842329
 30
0.0
 40
20.0
100
AcDbArc
 50
180.0
 51
270.0
  0
ARC
  5
13E
330
371D
100
AcDbEntity
  8
Haube
100
AcDbCircle
 10
224.4963350339234
 20
-314.8045233842328
 30
0.0
 40
20.0
100
AcDbArc
 50
270.0
 51
0.0
  0
ARC
  5
13F
330
371D
100
AcDbEntity
  8
Haube
100
AcDbCircle
 10
-224.5903772717578
 20
345.1022655818761
 30
0.0
 40
20.0
100
AcDbArc
 50
90.0
 51
180.0
  0
LINE
  5
60F
330
371D
100
AcDbEntity
  8
Haube
100
AcDbLine
 10
-236.5098167404231
 20
251.9403552023527
 30
0.0
 11
-242.5809467296367
 21
251.9117278605608
 31
0.0
  0
LINE
  5
611
330
371D
100
AcDbEntity
  8
Haube
100
AcDbLine
 10
-234.519269516449
 20
253.9497635105691
 30
0.0
 11
-234.5431324754699
 21
259.0104892739213
 31
0.0
  0
LINE
  5
618
330
371D
100
AcDbEntity
  8
Haube
100
AcDbLine
 10
-236.2772771749073
 20
-222.0363406375358
 30
0.0
 11
-242.570442939265
 21
-222.0661599735903
 31
0.0
  0
LINE
  5
61E
330
371D
100
AcDbEntity
  8
Haube
100
AcDbLine
 10
236.2649280750455
 20
251.7650869422913
 30
0.0
 11
242.5003875219707
 21
251.7777215306671
 31
0.0
  0
LINE
  5
620
330
371D
100
AcDbEntity
  8
Haube
100
AcDbLine
 10
234.2608792477658
 20
253.761256211852
 30
0.0
 11
234.2512191065534
 21
258.8101565407254
 31
0.0
  0
LINE
  5
626
330
371D
100
AcDbEntity
  8
Haube
100
AcDbLine
 10
234.17790550001
 20
-220.0619306094143
 30
0.0
 11
234.2475589584512
 21
-215.0065556409409
 31
0.0
  0
CIRCLE
  5
62A
330
371D
100
AcDbEntity
  8
Rueckwand
100
AcDbCircle
 10
-482.2032309253251
 20
-215.037863515757
 30
0.0
 40
1.613737626879905
  0
LINE
  5
793
330
371D
100
AcDbEntity
  8
Haube
100
AcDbLine
 10
-234.3214784672459
 20
-214.9678337872998
 30
0.0
 11
-234.28680086708
 21
-220.0226427749334
 31
0.0
  0
LINE
  5
797
330
371D
100
AcDbEntity
  8
Haube
100
AcDbLine
 10
236.1505426038456
 20
-222.0892995901712
 30
0.0
 11
242.5331567362659
 21
-222.1760252601553
 31
0.0
  0
LINE
  5
1505
330
371D
100
AcDbEntity
  8
Haube
100
AcDbLine
 10
224.4963350339234
 20
365.1022655818762
 30
0.0
 11
222.8382605506888
 21
365.1022655818762
 31
0.0
  0
LINE
  5
1507
330
371D
100
AcDbEntity
  8
Haube
100
AcDbLine
 10
-224.5903772717578
 20
365.1022655818761
 30
0.0
 11
-222.9403772717577
 21
365.1022655818759
 31
0.0
  0
LINE
  5
1508
330
371D
100
AcDbEntity
  8
Haube
100
AcDbLine
 10
-224.5903772717578
 20
-334.8045233842329
 30
0.0
 11
-222.9638907885219
 21
-334.8045233842328
 31
0.0
  0
LINE
  5
1D86
330
371D
100
AcDbEntity
  8
Rueckwand
100
AcDbLine
 10
-151.8659108331966
 20
324.4633228779816
 30
0.0
 11
-151.8620555317231
 21
320.4846409033685
 31
0.0
  0
LINE
  5
1D87
330
371D
100
AcDbEntity
  8
Rueckwand
100
AcDbLine
 10
-146.0643597421755
 20
324.4633228779816
 30
0.0
 11
-146.0593006783815
 21
320.4805808848918
 31
0.0
  0
ARC
  5
1D88
330
371D
100
AcDbEntity
  8
Rueckwand
100
AcDbCircle
 10
-148.9651352876861
 20
314.1122117668705
 30
0.0
 40
6.999999999999996
100
AcDbArc
 50
114.4466488199535
 51
65.47317481851545
  0
LINE
  5
1D89
330
371D
100
AcDbEntity
  8
Rueckwand
100
AcDbLine
 10
148.2582922460339
 20
324.4841008744934
 30
0.0
 11
148.2621475475075
 21
320.5054188998803
 31
0.0
  0
LINE
  5
1D8A
330
371D
100
AcDbEntity
  8
Rueckwand
100
AcDbLine
 10
154.059843337055
 20
324.4841008744933
 30
0.0
 11
154.0649024008491
 21
320.5013588814036
 31
0.0
  0
ARC
  5
1D8B
330
371D
100
AcDbEntity
  8
Rueckwand
100
AcDbCircle
 10
151.1590677915445
 20
314.1329897633823
 30
0.0
 40
6.999999999999996
100
AcDbArc
 50
114.4466488199535
 51
65.47317481851545
  0
ARC
  5
1D8C
330
371D
100
AcDbEntity
  8
Rueckwand
100
AcDbCircle
 10
151.1590677915445
 20
323.1329897633823
 30
0.0
 40
3.199999999999987
100
AcDbArc
 50
24.97496536765974
 51
155.0250346323402
  0
CIRCLE
  5
1DAA
330
371D
100
AcDbEntity
  8
Batteriehalter
100
AcDbCircle
 10
-0.0602705418506275
 20
14.60750363409423
 30
0.0
 40
2.7
  0
CIRCLE
  5
1DAB
330
371D
100
AcDbEntity
  8
Batteriehalter
100
AcDbCircle
 10
164.9767723786601
 20
14.60750363409423
 30
0.0
 40
2.7
  0
CIRCLE
  5
1DAC
330
371D
100
AcDbEntity
  8
Batteriehalter
100
AcDbCircle
 10
-165.0869843606483
 20
14.60750363409423
 30
0.0
 40
2.7
  0
LINE
  5
1DB6
330
371D
100
AcDbEntity
  8
Batteriehalter
100
AcDbLine
 10
-212.5854999420147
 20
287.6075036340942
 30
0.0
 11
-212.5854999420147
 21
59.60750363409423
 31
0.0
  0
LINE
  5
1DB7
330
371D
100
AcDbEntity
  8
Batteriehalter
100
AcDbLine
 10
212.4649588583135
 20
287.6075036340943
 30
0.0
 11
212.4649588583135
 21
59.60750363409423
 31
0.0
  0
LINE
  5
1DB8
330
371D
100
AcDbEntity
  8
Batteriehalter
100
AcDbLine
 10
-202.5854999420147
 20
297.6075036340942
 30
0.0
 11
-192.5854999420147
 21
297.6075036340942
 31
0.0
  0
LINE
  5
1DB9
330
371D
100
AcDbEntity
  8
Batteriehalter
100
AcDbLine
 10
-202.5854999420147
 20
49.60750363409423
 30
0.0
 11
-192.5854999420147
 21
49.60750363409423
 31
0.0
  0
LINE
  5
1DBA
330
371D
100
AcDbEntity
  8
Batteriehalter
100
AcDbLine
 10
202.4649588583134
 20
49.60750363409423
 30
0.0
 11
192.4649588583135
 21
49.60750363409423
 31
0.0
  0
LINE
  5
1DBB
330
371D
100
AcDbEntity
  8
Batteriehalter
100
AcDbLine
 10
202.4649588583135
 20
297.6075036340942
 30
0.0
 11
192.4649588583135
 21
297.6075036340942
 31
0.0
  0
LINE
  5
1DC5
330
371D
100
AcDbEntity
  8
Batteriehalter
100
AcDbLine
 10
-190.5854999420147
 20
25.6515061311895
 30
0.0
 11
-189.0734534164149
 21
24.60750363409423
 31
0.0
  0
LINE
  5
1DC6
330
371D
100
AcDbEntity
  8
Batteriehalter
100
AcDbLine
 10
-189.0734534164149
 20
24.60750363409423
 30
0.0
 11
-190.5854999420147
 21
23.60182343134562
 31
0.0
  0
LINE
  5
1DC7
330
371D
100
AcDbEntity
  8
Batteriehalter
100
AcDbLine
 10
190.4649588583135
 20
23.63709222814529
 30
0.0
 11
188.9587878750816
 21
24.60750363409423
 31
0.0
  0
LINE
  5
1DC8
330
371D
100
AcDbEntity
  8
Batteriehalter
100
AcDbLine
 10
188.9587878750816
 20
24.60750363409423
 30
0.0
 11
190.4649588583135
 21
25.60820933975304
 31
0.0
  0
LINE
  5
1DC9
330
371D
100
AcDbEntity
  8
Batteriehalter
100
AcDbLine
 10
190.4649588583135
 20
14.60750363409423
 30
0.0
 11
190.4649588583135
 21
23.63709222814529
 31
0.0
  0
LINE
  5
1DCA
330
371D
100
AcDbEntity
  8
Batteriehalter
100
AcDbLine
 10
192.4649588583135
 20
27.60820933975304
 30
0.0
 11
192.4649588583135
 21
49.60750363409423
 31
0.0
  0
LINE
  5
1DCF
330
371D
100
AcDbEntity
  8
Batteriehalter
100
AcDbLine
 10
-190.5854999420147
 20
14.60750363409423
 30
0.0
 11
-190.5854999420147
 21
23.60182343134562
 31
0.0
  0
LINE
  5
1DD0
330
371D
100
AcDbEntity
  8
Batteriehalter
100
AcDbLine
 10
-192.5854999420147
 20
27.6515061311895
 30
0.0
 11
-192.5854999420147
 21
49.60750363409423
 31
0.0
  0
CIRCLE
  5
1DD3
330
371D
100
AcDbEntity
  8
Batteriehalter
100
AcDbCircle
 10
-202.5854999420147
 20
173.6075036340942
 30
0.0
 40
2.7
  0
CIRCLE
  5
1DD4
330
371D
100
AcDbEntity
  8
Batteriehalter
100
AcDbCircle
 10
202.4649588583135
 20
173.6075036340942
 30
0.0
 40
2.7
  0
CIRCLE
  5
1DD5
330
371D
100
AcDbEntity
  8
Batteriehalter
100
AcDbCircle
 10
202.4649588583135
 20
273.6392865588965
 30
0.0
 40
2.7
  0
CIRCLE
  5
1DD6
330
371D
100
AcDbEntity
  8
Batteriehalter
100
AcDbCircle
 10
202.4649588583135
 20
73.58698876255966
 30
0.0
 40
2.7
  0
CIRCLE
  5
1DD7
330
371D
100
AcDbEntity
  8
Batteriehalter
100
AcDbCircle
 10
-202.5854999420147
 20
73.64893506170571
 30
0.0
 40
2.7
  0
CIRCLE
  5
1DD8
330
371D
100
AcDbEntity
  8
Batteriehalter
100
AcDbCircle
 10
-202.5854999420147
 20
273.6409555876604
 30
0.0
 40
2.7
  0
ARC
  5
1DD9
330
371D
100
AcDbEntity
  8
Batteriehalter
100
AcDbCircle
 10
-157.5917450219183
 20
347.3965619654019
 30
0.0
 40
10.0
100
AcDbArc
 50
90.0
 51
180.0
  0
ARC
  5
1DDA
330
371D
100
AcDbEntity
  8
Batteriehalter
100
AcDbCircle
 10
162.4641208314381
 20
347.3827976841303
 30
0.0
 40
10.0
100
AcDbArc
 50
0.0
 51
90.0000000000005
  0
ARC
  5
1DDB
330
371D
100
AcDbEntity
  8
Batteriehalter
100
AcDbCircle
 10
202.4649588583135
 20
287.6075036340943
 30
0.0
 40
10.0
100
AcDbArc
 50
0.0
 51
90.0
  0
ARC
  5
1DDC
330
371D
100
AcDbEntity
  8
Batteriehalter
100
AcDbCircle
 10
202.4649588583134
 20
59.60750363409422
 30
0.0
 40
10.0
100
AcDbArc
 50
270.0
 51
0.0
  0
ARC
  5
1DDD
330
371D
100
AcDbEntity
  8
Batteriehalter
100
AcDbCircle
 10
180.4649588583135
 20
14.60750363409423
 30
0.0
 40
10.0
100
AcDbArc
 50
270.0
 51
0.0
  0
ARC
  5
1DDE
330
371D
100
AcDbEntity
  8
Batteriehalter
100
AcDbCircle
 10
-180.5854999420147
 20
14.60750363409423
 30
0.0
 40
10.0
100
AcDbArc
 50
180.0
 51
270.0
  0
ARC
  5
1DDF
330
371D
100
AcDbEntity
  8
Batteriehalter
100
AcDbCircle
 10
-202.5854999420147
 20
59.60750363409422
 30
0.0
 40
10.0
100
AcDbArc
 50
180.0
 51
270.0
  0
ARC
  5
1DE0
330
371D
100
AcDbEntity
  8
Batteriehalter
100
AcDbCircle
 10
-202.5854999420147
 20
287.6075036340942
 30
0.0
 40
10.0
100
AcDbArc
 50
90.0
 51
180.0
  0
CIRCLE
  5
1DE1
330
371D
100
AcDbEntity
  8
Rueckwand
100
AcDbCircle
 10
-0.0602705418506275
 20
14.60750363409423
 30
0.0
 40
2.7
  0
CIRCLE
  5
1DE2
330
371D
100
AcDbEntity
  8
Rueckwand
100
AcDbCircle
 10
-165.0869843606483
 20
14.60750363409423
 30
0.0
 40
2.7
  0
CIRCLE
  5
1DE3
330
371D
100
AcDbEntity
  8
Rueckwand
100
AcDbCircle
 10
164.9767723786601
 20
14.60750363409423
 30
0.0
 40
2.7
  0
CIRCLE
  5
1DE9
330
371D
100
AcDbEntity
  8
Rueckwand
100
AcDbCircle
 10
-344.4756398353737
 20
14.52346824151738
 30
0.0
 40
2.7
  0
CIRCLE
  5
1DEA
330
371D
100
AcDbEntity
  8
Rueckwand
100
AcDbCircle
 10
-244.4861125530398
 20
14.54829766695477
 30
0.0
 40
2.7
  0
CIRCLE
  5
1DEB
330
371D
100
AcDbEntity
  8
Rueckwand
100
AcDbCircle
 10
-444.4890740072704
 20
14.49863287951495
 30
0.0
 40
2.7
  0
CIRCLE
  5
1DF0
330
371D
100
AcDbEntity
  8
Rueckwand
100
AcDbCircle
 10
344.3655058367189
 20
14.6985521455542
 30
0.0
 40
2.7
  0
CIRCLE
  5
1DF1
330
371D
100
AcDbEntity
  8
Rueckwand
100
AcDbCircle
 10
244.3583608808094
 20
14.6716466840937
 30
0.0
 40
2.7
  0
CIRCLE
  5
1DF2
330
371D
100
AcDbEntity
  8
Rueckwand
100
AcDbCircle
 10
444.3420250725569
 20
14.72544936761209
 30
0.0
 40
2.7
  0
LINE
  5
1DFE
330
371D
100
AcDbEntity
  8
Batteriehalter
100
AcDbLine
 10
190.4649588583135
 20
320.8070280923107
 30
0.0
 11
172.4641208314382
 21
320.8070280923107
 31
0.0
  0
ARC
  5
1E06
330
371D
100
AcDbEntity
  8
Batteriehalter
100
AcDbCircle
 10
190.4649588583135
 20
318.8070280923108
 30
0.0
 40
2.0
100
AcDbArc
 50
0.0
 51
90.0
  0
ARC
  5
1E07
330
371D
100
AcDbEntity
  8
Batteriehalter
100
AcDbCircle
 10
-190.5854999420147
 20
318.8215001913762
 30
0.0
 40
2.0
100
AcDbArc
 50
90.0
 51
180.0
  0
LINE
  5
1E09
330
371D
100
AcDbEntity
  8
Deckel unten
100
AcDbLine
 10
190.5445421218018
 20
-315.410010109487
 30
0.0
 11
189.0383711385699
 21
-316.3804215154362
 31
0.0
  0
LINE
  5
1E0A
330
371D
100
AcDbEntity
  8
Deckel unten
100
AcDbLine
 10
189.0383711385699
 20
-316.3804215154362
 30
0.0
 11
190.5445421218018
 21
-317.3811272210945
 31
0.0
  0
LINE
  5
1E0B
330
371D
100
AcDbEntity
  8
Deckel unten
100
AcDbLine
 10
190.5445421218018
 20
-306.380421515436
 30
0.0
 11
190.5445421218018
 21
-315.410010109487
 31
0.0
  0
LINE
  5
1E11
330
371D
100
AcDbEntity
  8
Deckel unten
100
AcDbLine
 10
-190.5059166785264
 20
-306.380421515436
 30
0.0
 11
-190.5059166785264
 21
-315.3747413126869
 31
0.0
  0
CIRCLE
  5
1E13
330
371D
100
AcDbEntity
  8
Deckel unten
100
AcDbCircle
 10
-202.5059166785263
 20
-465.380421515436
 30
0.0
 40
2.7
  0
CIRCLE
  5
1E14
330
371D
100
AcDbEntity
  8
Deckel unten
100
AcDbCircle
 10
202.5445421218018
 20
-465.380421515436
 30
0.0
 40
2.7
  0
CIRCLE
  5
1E15
330
371D
100
AcDbEntity
  8
Deckel unten
100
AcDbCircle
 10
202.5445421218018
 20
-565.4122044402383
 30
0.0
 40
2.7
  0
CIRCLE
  5
1E16
330
371D
100
AcDbEntity
  8
Deckel unten
100
AcDbCircle
 10
202.5445421218018
 20
-365.3599066439014
 30
0.0
 40
2.7
  0
CIRCLE
  5
1E17
330
371D
100
AcDbEntity
  8
Deckel unten
100
AcDbCircle
 10
-202.5059166785264
 20
-365.4218529430474
 30
0.0
 40
2.7
  0
CIRCLE
  5
1E18
330
371D
100
AcDbEntity
  8
Deckel unten
100
AcDbCircle
 10
-202.5059166785263
 20
-565.4138734690022
 30
0.0
 40
2.7
  0
ARC
  5
1E1B
330
371D
100
AcDbEntity
  8
Deckel unten
100
AcDbCircle
 10
202.5445421218018
 20
-601.3804215154361
 30
0.0
 40
10.0
100
AcDbArc
 50
270.0
 51
0.0
  0
ARC
  5
1E1C
330
371D
100
AcDbEntity
  8
Deckel unten
100
AcDbCircle
 10
202.5445421218017
 20
-331.380421515436
 30
0.0
 40
10.0
100
AcDbArc
 50
0.0
 51
90.00000000000001
  0
ARC
  5
1E1D
330
371D
100
AcDbEntity
  8
Deckel unten
100
AcDbCircle
 10
180.5388899221579
 20
-282.2416424145711
 30
0.0
 40
10.0
100
AcDbArc
 50
0.0
 51
90.00000000000001
  0
ARC
  5
1E1E
330
371D
100
AcDbEntity
  8
Deckel unten
100
AcDbCircle
 10
-180.5115688781703
 20
-282.2416424145711
 30
0.0
 40
10.0
100
AcDbArc
 50
90.00000000000001
 51
180.0
  0
ARC
  5
1E1F
330
371D
100
AcDbEntity
  8
Deckel unten
100
AcDbCircle
 10
-202.5059166785264
 20
-331.3804215154361
 30
0.0
 40
10.0
100
AcDbArc
 50
90.00000000000001
 51
180.0
  0
ARC
  5
1E20
330
371D
100
AcDbEntity
  8
Deckel unten
100
AcDbCircle
 10
-202.5059166785264
 20
-601.3804215154358
 30
0.0
 40
10.0
100
AcDbArc
 50
180.0
 51
270.0
  0
CIRCLE
  5
1E23
330
371D
100
AcDbEntity
  8
Deckel unten
100
AcDbCircle
 10
0.0193127216376752
 20
-306.380421515436
 30
0.0
 40
2.7
  0
CIRCLE
  5
1E24
330
371D
100
AcDbEntity
  8
Deckel unten
100
AcDbCircle
 10
160.0563556421484
 20
-306.380421515436
 30
0.0
 40
2.7
  0
CIRCLE
  5
1E25
330
371D
100
AcDbEntity
  8
Deckel unten
100
AcDbCircle
 10
-165.00740109716
 20
-306.380421515436
 30
0.0
 40
2.7
  0
LINE
  5
1E2A
330
371D
100
AcDbEntity
  8
Deckel unten
100
AcDbLine
 10
-202.5059166785263
 20
-611.380421515436
 30
0.0
 11
-192.5059166785264
 21
-611.3804215154358
 31
0.0
  0
LINE
  5
1E2B
330
371D
100
AcDbEntity
  8
Deckel unten
100
AcDbLine
 10
-202.5059166785264
 20
-321.380421515436
 30
0.0
 11
-192.5059166785264
 21
-321.380421515436
 31
0.0
  0
LINE
  5
1E2C
330
371D
100
AcDbEntity
  8
Deckel unten
100
AcDbLine
 10
202.5445421218017
 20
-321.380421515436
 30
0.0
 11
192.5445421218018
 21
-321.380421515436
 31
0.0
  0
LINE
  5
1E2E
330
371D
100
AcDbEntity
  8
Deckel unten
100
AcDbLine
 10
202.5445421218018
 20
-611.3804215154358
 30
0.0
 11
192.5445421218018
 21
-611.380421515436
 31
0.0
  0
LINE
  5
1E34
330
371D
100
AcDbEntity
  8
Deckel unten
100
AcDbLine
 10
-190.5059166785264
 20
-317.4244240125311
 30
0.0
 11
-188.9938701529266
 21
-316.380421515436
 31
0.0
  0
LINE
  5
1E36
330
371D
100
AcDbEntity
  8
Deckel unten
100
AcDbLine
 10
-188.9938701529266
 20
-316.380421515436
 30
0.0
 11
-190.5059166785264
 21
-315.3747413126869
 31
0.0
  0
ARC
  5
1E3C
330
371D
100
AcDbEntity
  8
Deckel unten
100
AcDbCircle
 10
-152.5059166785264
 20
-616.3868652423947
 30
0.0
 40
40.0
100
AcDbArc
 50
180.0
 51
270.0025031599467
  0
ARC
  5
1E3D
330
371D
100
AcDbEntity
  8
Deckel unten
100
AcDbCircle
 10
152.5445421218018
 20
-616.3739749650044
 30
0.0
 40
40.0
100
AcDbArc
 50
270.0025031599469
 51
0.0
  0
LINE
  5
1E3E
330
371D
100
AcDbEntity
  8
Deckel oben
100
AcDbLine
 10
188.8860893321294
 20
316.8687260895692
 30
0.0
 11
190.3922603153612
 21
317.8694317952281
 31
0.0
  0
LINE
  5
1E3F
330
371D
100
AcDbEntity
  8
Deckel oben
100
AcDbLine
 10
190.3922603153612
 20
306.8687260895692
 30
0.0
 11
190.3922603153612
 21
315.8983146836204
 31
0.0
  0
LINE
  5
1E43
330
371D
100
AcDbEntity
  8
Deckel oben
100
AcDbLine
 10
-190.658198484967
 20
306.8687260895692
 30
0.0
 11
-190.658198484967
 21
315.8630458868207
 31
0.0
  0
CIRCLE
  5
1E45
330
371D
100
AcDbEntity
  8
Deckel oben
100
AcDbCircle
 10
-202.6581984849669
 20
465.8687260895692
 30
0.0
 40
2.7
  0
CIRCLE
  5
1E46
330
371D
100
AcDbEntity
  8
Deckel oben
100
AcDbCircle
 10
202.3922603153612
 20
465.8687260895692
 30
0.0
 40
2.7
  0
CIRCLE
  5
1E47
330
371D
100
AcDbEntity
  8
Deckel oben
100
AcDbCircle
 10
202.3922603153612
 20
565.9005090143716
 30
0.0
 40
2.7
  0
CIRCLE
  5
1E48
330
371D
100
AcDbEntity
  8
Deckel oben
100
AcDbCircle
 10
202.3922603153612
 20
365.8482112180347
 30
0.0
 40
2.7
  0
CIRCLE
  5
1E49
330
371D
100
AcDbEntity
  8
Deckel oben
100
AcDbCircle
 10
-202.658198484967
 20
365.9101575171808
 30
0.0
 40
2.7
  0
CIRCLE
  5
1E4A
330
371D
100
AcDbEntity
  8
Deckel oben
100
AcDbCircle
 10
-202.6581984849669
 20
565.9021780431355
 30
0.0
 40
2.7
  0
ARC
  5
1E4B
330
371D
100
AcDbEntity
  8
Deckel oben
100
AcDbCircle
 10
202.3922603153612
 20
601.8687260895693
 30
0.0
 40
10.0
100
AcDbArc
 50
0.0
 51
90.0
  0
ARC
  5
1E4C
330
371D
100
AcDbEntity
  8
Deckel oben
100
AcDbCircle
 10
202.3922603153612
 20
331.8687260895692
 30
0.0
 40
10.0
100
AcDbArc
 50
270.0
 51
0.0
  0
ARC
  5
1E4D
330
371D
100
AcDbEntity
  8
Deckel oben
100
AcDbCircle
 10
180.3922603153612
 20
306.8687260895692
 30
0.0
 40
10.0
100
AcDbArc
 50
270.0
 51
0.0
  0
ARC
  5
1E4E
330
371D
100
AcDbEntity
  8
Deckel oben
100
AcDbCircle
 10
-180.658198484967
 20
306.8687260895692
 30
0.0
 40
10.0
100
AcDbArc
 50
180.0
 51
270.0
  0
ARC
  5
1E4F
330
371D
100
AcDbEntity
  8
Deckel oben
100
AcDbCircle
 10
-202.658198484967
 20
331.8687260895692
 30
0.0
 40
10.0
100
AcDbArc
 50
180.0
 51
270.0
  0
ARC
  5
1E50
330
371D
100
AcDbEntity
  8
Deckel oben
100
AcDbCircle
 10
-202.658198484967
 20
601.8687260895692
 30
0.0
 40
10.0
100
AcDbArc
 50
90.0
 51
180.0
  0
CIRCLE
  5
1E53
330
371D
100
AcDbEntity
  8
Deckel oben
100
AcDbCircle
 10
-0.1329690848028804
 20
306.8687260895692
 30
0.0
 40
2.7
  0
CIRCLE
  5
1E54
330
371D
100
AcDbEntity
  8
Deckel oben
100
AcDbCircle
 10
164.9040738357078
 20
306.8687260895692
 30
0.0
 40
2.7
  0
CIRCLE
  5
1E55
330
371D
100
AcDbEntity
  8
Deckel oben
100
AcDbCircle
 10
-165.1596829036006
 20
306.8687260895692
 30
0.0
 40
2.7
  0
LINE
  5
1E5A
330
371D
100
AcDbEntity
  8
Deckel oben
100
AcDbLine
 10
-202.658198484967
 20
611.8687260895692
 30
0.0
 11
-192.6581984849669
 21
611.8687260895692
 31
0.0
  0
LINE
  5
1E5B
330
371D
100
AcDbEntity
  8
Deckel oben
100
AcDbLine
 10
-202.658198484967
 20
321.8687260895692
 30
0.0
 11
-192.658198484967
 21
321.8687260895692
 31
0.0
  0
LINE
  5
1E5C
330
371D
100
AcDbEntity
  8
Deckel oben
100
AcDbLine
 10
202.3922603153612
 20
321.8687260895692
 30
0.0
 11
192.3922603153612
 21
321.8687260895692
 31
0.0
  0
LINE
  5
1E5D
330
371D
100
AcDbEntity
  8
Deckel oben
100
AcDbLine
 10
202.3922603153612
 20
611.8687260895692
 30
0.0
 11
192.3922603153612
 21
611.8687260895692
 31
0.0
  0
LINE
  5
1E5E
330
371D
100
AcDbEntity
  8
Deckel oben
100
AcDbLine
 10
-190.658198484967
 20
317.9127285866645
 30
0.0
 11
-189.1461519593672
 21
316.8687260895692
 31
0.0
  0
LINE
  5
1E60
330
371D
100
AcDbEntity
  8
Deckel oben
100
AcDbLine
 10
-189.1461519593672
 20
316.8687260895692
 30
0.0
 11
-190.658198484967
 21
315.8630458868207
 31
0.0
  0
ARC
  5
1E61
330
371D
100
AcDbEntity
  8
Deckel oben
100
AcDbCircle
 10
-152.6581984849669
 20
616.875169816528
 30
0.0
 40
40.0
100
AcDbArc
 50
89.99749684005324
 51
180.0
  0
ARC
  5
1E62
330
371D
100
AcDbEntity
  8
Deckel oben
100
AcDbCircle
 10
152.3922603153612
 20
616.8622795391377
 30
0.0
 40
40.0
100
AcDbArc
 50
0.0
 51
89.99749684005316
  0
LINE
  5
1E63
330
371D
100
AcDbEntity
  8
Deckel oben
100
AcDbLine
 10
190.3922603153612
 20
315.8983146836204
 30
0.0
 11
188.8860893321294
 21
316.8687260895692
 31
0.0
  0
CIRCLE
  5
1E6D
330
371D
100
AcDbEntity
  8
Rueckwand
100
AcDbCircle
 10
-344.548338378326
 20
336.7846906969924
 30
0.0
 40
2.7
  0
CIRCLE
  5
1E6E
330
371D
100
AcDbEntity
  8
Rueckwand
100
AcDbCircle
 10
-244.558811095992
 20
336.8095201224298
 30
0.0
 40
2.7
  0
CIRCLE
  5
1E6F
330
371D
100
AcDbEntity
  8
Rueckwand
100
AcDbCircle
 10
-444.5617725502227
 20
336.75985533499
 30
0.0
 40
2.7
  0
CIRCLE
  5
1E70
330
371D
100
AcDbEntity
  8
Rueckwand
100
AcDbCircle
 10
344.2928072937666
 20
336.9597746010293
 30
0.0
 40
2.7
  0
CIRCLE
  5
1E71
330
371D
100
AcDbEntity
  8
Rueckwand
100
AcDbCircle
 10
244.2856623378571
 20
336.9328691395688
 30
0.0
 40
2.7
  0
CIRCLE
  5
1E72
330
371D
100
AcDbEntity
  8
Rueckwand
100
AcDbCircle
 10
-0.1329690848028804
 20
336.8687260895692
 30
0.0
 40
2.7
  0
CIRCLE
  5
1E73
330
371D
100
AcDbEntity
  8
Rueckwand
100
AcDbCircle
 10
444.2693265296046
 20
336.9866718230871
 30
0.0
 40
2.7
  0
CIRCLE
  5
1E74
330
371D
100
AcDbEntity
  8
Rueckwand
100
AcDbCircle
 10
-165.1596829036006
 20
336.8687260895692
 30
0.0
 40
2.7
  0
CIRCLE
  5
1E75
330
371D
100
AcDbEntity
  8
Rueckwand
100
AcDbCircle
 10
164.9040738357078
 20
336.8687260895692
 30
0.0
 40
2.7
  0
CIRCLE
  5
1E76
330
371D
100
AcDbEntity
  8
Rueckwand
100
AcDbCircle
 10
-344.3960565718854
 20
-306.4644569080128
 30
0.0
 40
2.7
  0
CIRCLE
  5
1E77
330
371D
100
AcDbEntity
  8
Rueckwand
100
AcDbCircle
 10
-244.4065292895515
 20
-306.4396274825754
 30
0.0
 40
2.7
  0
CIRCLE
  5
1E78
330
371D
100
AcDbEntity
  8
Rueckwand
100
AcDbCircle
 10
-444.4094907437821
 20
-306.4892922700152
 30
0.0
 40
2.7
  0
CIRCLE
  5
1E79
330
371D
100
AcDbEntity
  8
Rueckwand
100
AcDbCircle
 10
344.4450891002072
 20
-306.2893730039759
 30
0.0
 40
2.7
  0
CIRCLE
  5
1E7A
330
371D
100
AcDbEntity
  8
Rueckwand
100
AcDbCircle
 10
244.4379441442977
 20
-306.3162784654364
 30
0.0
 40
2.7
  0
CIRCLE
  5
1E7B
330
371D
100
AcDbEntity
  8
Rueckwand
100
AcDbCircle
 10
0.0193127216376752
 20
-306.380421515436
 30
0.0
 40
2.7
  0
CIRCLE
  5
1E7C
330
371D
100
AcDbEntity
  8
Rueckwand
100
AcDbCircle
 10
444.4216083360452
 20
-306.2624757819181
 30
0.0
 40
2.7
  0
CIRCLE
  5
1E7D
330
371D
100
AcDbEntity
  8
Rueckwand
100
AcDbCircle
 10
-165.00740109716
 20
-306.380421515436
 30
0.0
 40
2.7
  0
CIRCLE
  5
1E7E
330
371D
100
AcDbEntity
  8
Rueckwand
100
AcDbCircle
 10
160.0563556421484
 20
-306.380421515436
 30
0.0
 40
2.7
  0
LINE
  5
1E8A
330
371D
100
AcDbEntity
  8
Rueckwand
100
AcDbLine
 10
512.9023898137116
 20
-302.1640360042787
 30
0.0
 11
512.739383599588
 21
302.7273035102241
 31
0.0
  0
LINE
  5
1E8B
330
371D
100
AcDbEntity
  8
Rueckwand
100
AcDbLine
 10
-512.9551178809394
 20
302.5872462956794
 30
0.0
 11
-512.8046627858421
 21
-302.304093152597
 31
0.0
  0
LINE
  5
1E94
330
371D
100
AcDbEntity
  8
Rueckwand
100
AcDbLine
 10
-495.3680062780001
 20
347.5916944824461
 30
0.0
 11
-494.4095196108049
 21
346.0715058961896
 31
0.0
  0
LINE
  5
1E95
330
371D
100
AcDbEntity
  8
Rueckwand
100
AcDbLine
 10
-494.4095196108049
 20
346.0715058961896
 30
0.0
 11
-493.4847394603219
 21
347.5917421580456
 31
0.0
  0
LINE
  5
1E96
330
371D
100
AcDbEntity
  8
Rueckwand
100
AcDbLine
 10
-194.69157301252
 20
347.6070886586592
 30
0.0
 11
-193.6912860507497
 21
346.0993497144101
 31
0.0
  0
LINE
  5
1E98
330
371D
100
AcDbEntity
  8
Rueckwand
100
AcDbLine
 10
-193.6912860507497
 20
346.0993497144102
 30
0.0
 11
-192.8183782151634
 21
347.607440839913
 31
0.0
  0
LINE
  5
1E99
330
371D
100
AcDbEntity
  8
Rueckwand
100
AcDbLine
 10
192.4146443316896
 20
347.7365786179031
 30
0.0
 11
193.3588467811259
 21
346.2556890531069
 31
0.0
  0
LINE
  5
1E9A
330
371D
100
AcDbEntity
  8
Rueckwand
100
AcDbLine
 10
193.3588467811259
 20
346.2556890531069
 30
0.0
 11
194.2947188249259
 21
347.7368594348213
 31
0.0
  0
LINE
  5
1E9B
330
371D
100
AcDbEntity
  8
Rueckwand
100
AcDbLine
 10
493.2534655511261
 20
347.7228994658986
 30
0.0
 11
494.2100432198384
 21
346.2642560212236
 31
0.0
  0
LINE
  5
1E9C
330
371D
100
AcDbEntity
  8
Rueckwand
100
AcDbLine
 10
494.2100432198384
 20
346.2642560212236
 30
0.0
 11
495.1334746758705
 21
347.7228546639121
 31
0.0
  0
LINE
  5
1E9D
330
371D
100
AcDbEntity
  8
Rueckwand
100
AcDbLine
 10
495.3197498721595
 20
-317.1603667662085
 30
0.0
 11
494.3543780469352
 21
-315.6585065061517
 31
0.0
  0
LINE
  5
1E9E
330
371D
100
AcDbEntity
  8
Rueckwand
100
AcDbLine
 10
494.3543780469352
 20
-315.6585065061517
 30
0.0
 11
493.380388329456
 21
-317.157396544359
 31
0.0
  0
LINE
  5
1E9F
330
371D
100
AcDbEntity
  8
Rueckwand
100
AcDbLine
 10
194.6020078202041
 20
-317.1766309665949
 30
0.0
 11
193.671167647813
 21
-315.7338167688912
 31
0.0
  0
LINE
  5
1EA0
330
371D
100
AcDbEntity
  8
Rueckwand
100
AcDbLine
 10
193.671167647813
 20
-315.7338167688912
 30
0.0
 11
192.7361907801294
 21
-317.1770130673786
 31
0.0
  0
LINE
  5
1EA1
330
371D
100
AcDbEntity
  8
Rueckwand
100
AcDbLine
 10
-192.4577501932664
 20
-317.3061373953064
 30
0.0
 11
-193.3789826908076
 21
-315.8547307473322
 31
0.0
  0
LINE
  5
1EA2
330
371D
100
AcDbEntity
  8
Rueckwand
100
AcDbLine
 10
-193.3789826908076
 20
-315.8547307473322
 30
0.0
 11
-194.2741888797664
 21
-317.3064007632615
 31
0.0
  0
LINE
  5
1EA3
330
371D
100
AcDbEntity
  8
Rueckwand
100
AcDbLine
 10
-493.3028918864767
 20
-317.2886270983091
 30
0.0
 11
-494.2651893434611
 21
-315.8313688261421
 31
0.0
  0
LINE
  5
1EA4
330
371D
100
AcDbEntity
  8
Rueckwand
100
AcDbLine
 10
-494.2651893434611
 20
-315.8313688261421
 30
0.0
 11
-495.2323330632863
 21
-317.2916003675206
 31
0.0
  0
LINE
  5
1EA5
330
371D
100
AcDbEntity
  8
Rueckwand
100
AcDbLine
 10
-497.8002152586185
 20
-317.2996443062848
 30
0.0
 11
-495.2323330632863
 21
-317.2916003675206
 31
0.0
  0
LINE
  5
1EA9
330
371D
100
AcDbEntity
  8
Rueckwand
100
AcDbLine
 10
497.9023904732571
 20
-317.1684841910454
 30
0.0
 11
495.3197498721595
 21
-317.1603667662085
 31
0.0
  0
LINE
  5
1EAA
330
371D
100
AcDbEntity
  8
Rueckwand
100
AcDbLine
 10
497.7349360723643
 20
347.722854663912
 30
0.0
 11
495.1334746758705
 21
347.7228546639121
 31
0.0
  0
LINE
  5
1EAE
330
371D
100
AcDbEntity
  8
Rueckwand
100
AcDbLine
 10
-495.3680062780001
 20
347.5916944824461
 30
0.0
 11
-497.9551185404849
 21
347.5916944824461
 31
0.0
  0
LINE
  5
1EC1
330
371D
100
AcDbEntity
  8
Haube
100
AcDbLine
 10
-242.5825841647354
 20
-228.0851960291549
 30
0.0
 11
-233.2969260835719
 21
-228.0716381475218
 31
0.0
  0
LINE
  5
1EC3
330
371D
100
AcDbEntity
  8
Haube
100
AcDbLine
 10
-242.5936310243619
 20
245.9067818850074
 30
0.0
 11
-233.532952350161
 21
245.9222704806902
 31
0.0
  0
LINE
  5
1EC6
330
371D
100
AcDbEntity
  8
Haube
100
AcDbLine
 10
242.5381850236015
 20
245.8719581789989
 30
0.0
 11
233.3528762283662
 21
245.7702485317743
 31
0.0
  0
LINE
  5
1EC7
330
371D
100
AcDbEntity
  8
Haube
100
AcDbLine
 10
233.16278595122
 20
-228.0543370888525
 30
0.0
 11
242.503394463898
 21
-228.0873069800946
 31
0.0
  0
LINE
  5
1ECD
330
371D
100
AcDbEntity
  8
Haube
100
AcDbLine
 10
-228.3042361639114
 20
-223.0618220102214
 30
0.0
 11
-228.3201871373787
 21
-214.9413738143344
 31
0.0
  0
LINE
  5
1ECE
330
371D
100
AcDbEntity
  8
Haube
100
AcDbLine
 10
-228.5414994875277
 20
259.0246267689125
 30
0.0
 11
-228.5414994875277
 21
250.9222631753291
 31
0.0
  0
LINE
  5
1ECF
330
371D
100
AcDbEntity
  8
Haube
100
AcDbLine
 10
228.2976050963017
 20
250.7397979251628
 30
0.0
 11
228.2490932652053
 21
258.7863055434244
 31
0.0
  0
LINE
  5
1ED1
330
371D
100
AcDbEntity
  8
Haube
100
AcDbLine
 10
228.2471533603529
 20
-214.9404952137041
 30
0.0
 11
228.1806044159766
 21
-223.0131508934393
 31
0.0
  0
ARC
  5
1ED7
330
371D
100
AcDbEntity
  8
Haube
100
AcDbCircle
 10
-233.5414994875277
 20
250.9222631753291
 30
0.0
 40
5.0
100
AcDbArc
 50
270.0979430273066
 51
0.0
  0
ARC
  5
1ED8
330
371D
100
AcDbEntity
  8
Haube
100
AcDbCircle
 10
-233.3042265177808
 20
-223.0716434771586
 30
0.0
 40
5.0
100
AcDbArc
 50
270.08365684348
 51
0.1125457932024635
  0
ARC
  5
1ED9
330
371D
100
AcDbEntity
  8
Haube
100
AcDbCircle
 10
233.1804345261562
 20
-223.0543682361693
 30
0.0
 40
5.0
100
AcDbArc
 50
179.5276786942472
 51
269.7977618084014
  0
ARC
  5
1EDA
330
371D
100
AcDbEntity
  8
Haube
100
AcDbCircle
 10
233.2975142287867
 20
250.7699420272801
 30
0.0
 40
5.0
100
AcDbArc
 50
180.345428058255
 51
270.6344147477125
  0
ARC
  5
1EDB
330
371D
100
AcDbEntity
  8
Haube
100
AcDbCircle
 10
231.2512245977049
 20
258.80441660357
 30
0.0
 40
3.0
100
AcDbArc
 50
0.1096247914410346
 51
90.6447607559111
  0
ARC
  5
1EDC
330
371D
100
AcDbEntity
  8
Haube
100
AcDbCircle
 10
231.2478436719467
 20
-214.9652252657765
 30
0.0
 40
3.0
100
AcDbArc
 50
359.2106230071611
 51
90.02557012472232
  0
ARC
  5
1EDD
330
371D
100
AcDbEntity
  8
Haube
100
AcDbCircle
 10
231.2470514264606
 20
-214.9652256193421
 30
0.0
 40
3.0
100
AcDbArc
 50
90.02557012472232
 51
179.527678694248
  0
ARC
  5
1EDE
330
371D
100
AcDbEntity
  8
Haube
100
AcDbCircle
 10
231.2490387446963
 20
258.8043920046948
 30
0.0
 40
3.0
100
AcDbArc
 50
90.6447607559111
 51
180.345428058255
  0
ARC
  5
1EDF
330
371D
100
AcDbEntity
  8
Haube
100
AcDbCircle
 10
-231.543165826327
 20
259.0246350871031
 30
0.0
 40
3.0
100
AcDbArc
 50
89.7139877807765
 51
180.2701661321744
  0
ARC
  5
1EE0
330
371D
100
AcDbEntity
  8
Haube
100
AcDbCircle
 10
-231.5414994875277
 20
259.0246267689125
 30
0.0
 40
3.0
100
AcDbArc
 50
0.0
 51
89.71398778077595
  0
ARC
  5
1EE1
330
371D
100
AcDbEntity
  8
Haube
100
AcDbCircle
 10
-231.3215490607112
 20
-214.9472533157646
 30
0.0
 40
3.0
100
AcDbArc
 50
89.43955965137205
 51
180.3930611361841
  0
ARC
  5
1EE2
330
371D
100
AcDbEntity
  8
Haube
100
AcDbCircle
 10
-231.3201813497004
 20
-214.9472666944967
 30
0.0
 40
3.0
100
AcDbArc
 50
0.1125457932024635
 51
89.43955965137151
  0
LINE
  5
1F2B
330
371D
100
AcDbEntity
  8
Boardhalter
100
AcDbLine
 10
-165.5059166785264
 20
-545.1804215154359
 30
0.0
 11
-164.1059166785264
 21
-544.3804215154361
 31
0.0
  0
LINE
  5
1F2C
330
371D
100
AcDbEntity
  8
Boardhalter
100
AcDbLine
 10
-164.1059166785264
 20
-544.3804215154361
 30
0.0
 11
-165.5059166785264
 21
-543.5804215154361
 31
0.0
  0
LINE
  5
1F2D
330
371D
100
AcDbEntity
  8
Boardhalter
100
AcDbLine
 10
97.54454212180175
 20
-545.1804215154359
 30
0.0
 11
96.14454212180175
 21
-544.3804215154361
 31
0.0
  0
LINE
  5
1F2E
330
371D
100
AcDbEntity
  8
Boardhalter
100
AcDbLine
 10
96.14454212180175
 20
-544.3804215154361
 30
0.0
 11
97.54454212180175
 21
-543.5804215154361
 31
0.0
  0
LINE
  5
1F31
330
371D
100
AcDbEntity
  8
Boardhalter
100
AcDbLine
 10
-165.5059166785264
 20
-559.3804215154361
 30
0.0
 11
-165.5059166785264
 21
-545.1804215154359
 31
0.0
  0
LINE
  5
1F32
330
371D
100
AcDbEntity
  8
Boardhalter
100
AcDbLine
 10
97.54454212180175
 20
-559.380421515436
 30
0.0
 11
97.54454212180175
 21
-545.1804215154359
 31
0.0
  0
ARC
  5
1F34
330
371D
100
AcDbEntity
  8
Boardhalter
100
AcDbCircle
 10
-160.5059166785264
 20
-559.3804215154361
 30
0.0
 40
5.0
100
AcDbArc
 50
180.0
 51
270.0
  0
ARC
  5
1F35
330
371D
100
AcDbEntity
  8
Boardhalter
100
AcDbCircle
 10
92.54454212180175
 20
-559.380421515436
 30
0.0
 40
5.0
100
AcDbArc
 50
270.0000000000002
 51
0.0
  0
ARC
  5
1F36
330
371D
100
AcDbEntity
  8
Boardhalter
100
AcDbCircle
 10
92.54454212180175
 20
-348.3453300609353
 30
0.0
 40
5.0
100
AcDbArc
 50
0.0
 51
90.0
  0
ARC
  5
1F37
330
371D
100
AcDbEntity
  8
Boardhalter
100
AcDbCircle
 10
-160.5059166785264
 20
-348.3453300609353
 30
0.0
 40
5.0
100
AcDbArc
 50
90.00000000000016
 51
180.0
  0
CIRCLE
  5
1F39
330
371D
100
AcDbEntity
  8
Boardhalter
100
AcDbCircle
 10
-132.0
 20
-539.0
 30
0.0
 40
2.5
  0
CIRCLE
  5
1F3A
330
371D
100
AcDbEntity
  8
Boardhalter
100
AcDbCircle
 10
32.51716957777444
 20
-538.9946390928088
 30
0.0
 40
2.5
  0
CIRCLE
  5
1F3B
330
371D
100
AcDbEntity
  8
Boardhalter
100
AcDbCircle
 10
32.49818779711795
 20
-372.9940395297875
 30
0.0
 40
2.5
  0
CIRCLE
  5
1F3F
330
371D
100
AcDbEntity
  8
Boardhalter
100
AcDbCircle
 10
-132.0
 20
-373.0
 30
0.0
 40
2.5
  0
LINE
  5
1F45
330
371D
100
AcDbEntity
  8
Deckel unten
100
AcDbLine
 10
-57.06058961235976
 20
-567.9044413381771
 30
0.0
 11
-94.00505560709851
 21
-567.9044413381771
 31
0.0
  0
LINE
  5
1F47
330
371D
100
AcDbEntity
  8
Boardhalter
100
AcDbLine
 10
-96.00505560709851
 20
-564.380421515436
 30
0.0
 11
-96.00505560709851
 21
-564.380421515436
 31
0.0
  0
LINE
  5
1F49
330
371D
100
AcDbEntity
  8
Boardhalter
100
AcDbLine
 10
-96.00505560709851
 20
-551.4621754662742
 30
0.0
 11
-96.00505560709851
 21
-551.4621754662742
 31
0.0
  0
LINE
  5
1F4B
330
371D
100
AcDbEntity
  8
Boardhalter
100
AcDbLine
 10
-55.06058961235976
 20
-551.4621754662742
 30
0.0
 11
-55.06058961235976
 21
-551.4621754662742
 31
0.0
  0
LINE
  5
1F4D
330
371D
100
AcDbEntity
  8
Boardhalter
100
AcDbLine
 10
-55.06058961235976
 20
-564.380421515436
 30
0.0
 11
-55.06058961235976
 21
-564.380421515436
 31
0.0
  0
LINE
  5
1F52
330
371D
100
AcDbEntity
  8
Boardhalter
100
AcDbLine
 10
-53.06058961235976
 20
-564.380421515436
 30
0.0
 11
32.54454212180177
 21
-564.380421515436
 31
0.0
  0
ARC
  5
1F54
330
371D
100
AcDbEntity
  8
Boardhalter
100
AcDbCircle
 10
-98.00505560709851
 20
-562.380421515436
 30
0.0
 40
2.0
100
AcDbArc
 50
270.0000000000002
 51
0.0
  0
ARC
  5
1F55
330
371D
100
AcDbEntity
  8
Boardhalter
100
AcDbCircle
 10
-53.06058961235976
 20
-562.380421515436
 30
0.0
 40
2.0
100
AcDbArc
 50
180.0
 51
270.0
  0
LINE
  5
1F5A
330
371D
100
AcDbEntity
  8
Deckel unten
100
AcDbLine
 10
-94.00505560709851
 20
-550.4621754662742
 30
0.0
 11
-57.06058961235976
 21
-550.4621754662742
 31
0.0
  0
LINE
  5
1F5B
330
371D
100
AcDbEntity
  8
Deckel unten
100
AcDbLine
 10
-96.00505560709851
 20
-565.904441338177
 30
0.0
 11
-96.00505560709851
 21
-552.4621754662742
 31
0.0
  0
LINE
  5
1F5C
330
371D
100
AcDbEntity
  8
Deckel unten
100
AcDbLine
 10
-55.06058961235976
 20
-552.4621754662742
 30
0.0
 11
-55.06058961235976
 21
-565.9044413381771
 31
0.0
  0
LINE
  5
1F5D
330
371D
100
AcDbEntity
  8
Boardhalter
100
AcDbLine
 10
-94.00505560709851
 20
-550.4621754662742
 30
0.0
 11
-57.06058961235976
 21
-550.4621754662742
 31
0.0
  0
LINE
  5
1F60
330
371D
100
AcDbEntity
  8
Boardhalter
100
AcDbLine
 10
-96.00505560709851
 20
-552.4621754662742
 30
0.0
 11
-96.00505560709851
 21
-562.380421515436
 31
0.0
  0
LINE
  5
1F61
330
371D
100
AcDbEntity
  8
Boardhalter
100
AcDbLine
 10
-55.06058961235976
 20
-562.380421515436
 30
0.0
 11
-55.06058961235976
 21
-552.4621754662742
 31
0.0
  0
ARC
  5
2028
330
371D
100
AcDbEntity
  8
Batteriehalter
100
AcDbCircle
 10
139.9426020308779
 20
129.9265455039742
 30
0.0
 40
5.0
100
AcDbArc
 50
180.0
 51
270.0
  0
LINE
  5
202B
330
371D
100
AcDbEntity
  8
Batteriehalter
100
AcDbLine
 10
139.9004440005438
 20
220.0687238222806
 30
0.0
 11
144.8582859702097
 21
220.0687238222806
 31
0.0
  0
ARC
  5
202D
330
371D
100
AcDbEntity
  8
Batteriehalter
100
AcDbCircle
 10
139.9004440005438
 20
215.0687238222806
 30
0.0
 40
5.0
100
AcDbArc
 50
90.0
 51
180.0
  0
LINE
  5
2035
330
371D
100
AcDbEntity
  8
Batthalter oben
100
AcDbLine
 10
105.1876354970259
 20
43.43184021945581
 30
0.0
 11
-154.8123645029743
 21
43.43184021945581
 31
0.0
  0
LINE
  5
2036
330
371D
100
AcDbEntity
  8
Batthalter oben
100
AcDbLine
 10
106.1876354970257
 20
171.7318402194556
 30
0.0
 11
99.18763549702567
 21
171.7318402194557
 31
0.0
  0
ARC
  5
2038
330
371D
100
AcDbEntity
  8
Batthalter oben
100
AcDbCircle
 10
123.0540835257625
 20
321.7876933371636
 30
0.0
 40
10.0
100
AcDbArc
 50
0.0
 51
90.0
  0
ARC
  5
203A
330
371D
100
AcDbEntity
  8
Batthalter oben
100
AcDbCircle
 10
123.0540835257625
 20
24.604762410273
 30
0.0
 40
10.0
100
AcDbArc
 50
270.0
 51
0.0
  0
CIRCLE
  5
203B
330
371D
100
AcDbEntity
  8
Batthalter oben
100
AcDbCircle
 10
122.9851885626954
 20
273.6998660412185
 30
0.0
 40
3.3
  0
CIRCLE
  5
203C
330
371D
100
AcDbEntity
  8
Batthalter oben
100
AcDbCircle
 10
122.968684022994
 20
73.75430606927233
 30
0.0
 40
3.3
  0
ARC
  5
203D
330
371D
100
AcDbEntity
  8
Batthalter oben
100
AcDbCircle
 10
99.03658073462327
 20
173.7318402194558
 30
0.0
 40
2.005696273428486
100
AcDbArc
 50
85.6808001570158
 51
274.3191998429839
  0
LINE
  5
203E
330
371D
100
AcDbEntity
  8
Batthalter oben
100
AcDbLine
 10
106.1876354970257
 20
302.0318402194556
 30
0.0
 11
106.1876354970257
 21
175.7318402194557
 31
0.0
  0
LINE
  5
203F
330
371D
100
AcDbEntity
  8
Batthalter oben
100
AcDbLine
 10
106.1876354970257
 20
171.7318402194556
 30
0.0
 11
106.1876354970259
 21
45.43184021945581
 31
0.0
  0
LINE
  5
2040
330
371D
100
AcDbEntity
  8
Batthalter oben
100
AcDbLine
 10
-155.8123645029742
 20
175.7318402194558
 30
0.0
 11
-155.8123645029742
 21
302.0318402194556
 31
0.0
  0
ARC
  5
2041
330
371D
100
AcDbEntity
  8
Batthalter oben
100
AcDbCircle
 10
-172.6788125317112
 20
24.60476241027311
 30
0.0
 40
10.0
100
AcDbArc
 50
180.0
 51
270.0
  0
ARC
  5
2043
330
371D
100
AcDbEntity
  8
Batthalter oben
100
AcDbCircle
 10
-172.6788125317109
 20
321.7876933371637
 30
0.0
 40
10.0
100
AcDbArc
 50
90.0
 51
180.0
  0
CIRCLE
  5
2044
330
371D
100
AcDbEntity
  8
Batthalter oben
100
AcDbCircle
 10
-172.6099175686439
 20
73.7638143976929
 30
0.0
 40
3.3
  0
CIRCLE
  5
2045
330
371D
100
AcDbEntity
  8
Batthalter oben
100
AcDbCircle
 10
-172.5934130289425
 20
273.7093743696391
 30
0.0
 40
3.3
  0
ARC
  5
2046
330
371D
100
AcDbEntity
  8
Batthalter oben
100
AcDbCircle
 10
-148.6613097405718
 20
173.7318402194556
 30
0.0
 40
2.005696273428486
100
AcDbArc
 50
265.6808001570158
 51
94.31919984298393
  0
LINE
  5
2047
330
371D
100
AcDbEntity
  8
Batthalter oben
100
AcDbLine
 10
-155.8123645029743
 20
45.43184021945581
 30
0.0
 11
-155.8123645029742
 21
171.7318402194557
 31
0.0
  0
LINE
  5
2048
330
371D
100
AcDbEntity
  8
Batthalter oben
100
AcDbLine
 10
-155.8123645029742
 20
175.7318402194558
 30
0.0
 11
-148.8123645029742
 21
175.7318402194557
 31
0.0
  0
LINE
  5
204A
330
371D
100
AcDbEntity
  8
Batthalter oben
100
AcDbLine
 10
-148.8123645029742
 20
171.7318402194555
 30
0.0
 11
-155.8123645029742
 21
171.7318402194557
 31
0.0
  0
LINE
  5
204C
330
371D
100
AcDbEntity
  8
Batthalter oben
100
AcDbLine
 10
99.18763549702567
 20
175.7318402194559
 30
0.0
 11
106.1876354970257
 21
175.7318402194557
 31
0.0
  0
CIRCLE
  5
204D
330
371D
100
AcDbEntity
  8
Batteriehalter
100
AcDbCircle
 10
-177.5934130289425
 20
273.7093743696391
 30
0.0
 40
3.3
  0
CIRCLE
  5
204E
330
371D
100
AcDbEntity
  8
Batteriehalter
100
AcDbCircle
 10
-177.6099175686439
 20
73.7638143976929
 30
0.0
 40
3.3
  0
CIRCLE
  5
204F
330
371D
100
AcDbEntity
  8
Batteriehalter
100
AcDbCircle
 10
117.968684022994
 20
73.75430606927233
 30
0.0
 40
3.3
  0
CIRCLE
  5
2050
330
371D
100
AcDbEntity
  8
Batteriehalter
100
AcDbCircle
 10
117.9851885626954
 20
273.6998660412185
 30
0.0
 40
3.3
  0
LINE
  5
209C
330
371D
100
AcDbEntity
  8
Haube
100
AcDbLine
 10
41.00246047154839
 20
-13.59019888558207
 30
0.0
 11
47.41725918478839
 21
-7.175252161826882
 31
0.0
  0
LINE
  5
209D
330
371D
100
AcDbEntity
  8
Haube
100
AcDbLine
 10
32.28621895685376
 20
-3.84005426582425
 30
0.0
 11
32.18777210307823
 21
3.75052853777042
 31
0.0
  0
LINE
  5
209E
330
371D
100
AcDbEntity
  8
Haube
100
AcDbLine
 10
23.14286638367153
 20
12.73939536142444
 30
0.0
 11
23.09847122249724
 21
-13.26849909884735
 31
0.0
  0
LINE
  5
209F
330
371D
100
AcDbEntity
  8
Haube
100
AcDbLine
 10
20.7240184785977
 20
-13.5355955568239
 30
0.0
 11
20.78628779466022
 21
-8.650901307166038
 31
0.0
  0
LINE
  5
20A0
330
371D
100
AcDbEntity
  8
Haube
100
AcDbLine
 10
15.65309451532547
 20
-3.230978349590123
 30
0.0
 11
6.458751840870961
 21
-3.261279307015349
 31
0.0
  0
LINE
  5
20A1
330
371D
100
AcDbEntity
  8
Haube
100
AcDbLine
 10
6.426848384571276
 20
2.509026358869562
 30
0.0
 11
15.58298267221778
 21
2.659308146062663
 31
0.0
  0
LINE
  5
20A2
330
371D
100
AcDbEntity
  8
Haube
100
AcDbLine
 10
20.74778608351326
 20
8.034744020051884
 30
0.0
 11
20.75480479134646
 21
13.02063563879206
 31
0.0
  0
LINE
  5
20A3
330
371D
100
AcDbEntity
  8
Haube
100
AcDbLine
 10
3.250067947917312
 20
-3.807116931968119
 30
0.0
 11
3.275936943095841
 21
12.96505227771978
 31
0.0
  0
LINE
  5
20A4
330
371D
100
AcDbEntity
  8
Haube
100
AcDbLine
 10
3.275936943095841
 20
12.96505227771978
 30
0.0
 11
-5.763663472494619
 21
12.97782309198116
 31
0.0
  0
LINE
  5
20A5
330
371D
100
AcDbEntity
  8
Haube
100
AcDbLine
 10
-5.763663472494619
 20
12.97782309198116
 30
0.0
 11
-5.793554531568724
 21
-13.35836051110304
 31
0.0
  0
LINE
  5
20A6
330
371D
100
AcDbEntity
  8
Haube
100
AcDbLine
 10
-8.208652947022287
 20
-8.814445558921609
 30
0.0
 11
-8.204346713458992
 21
-13.61840752992232
 31
0.0
  0
LINE
  5
20A7
330
371D
100
AcDbEntity
  8
Haube
100
AcDbLine
 10
-13.34047115999794
 20
-3.477857744805517
 30
0.0
 11
-13.40621467411365
 21
12.99537356930036
 31
0.0
  0
LINE
  5
20A8
330
371D
100
AcDbEntity
  8
Haube
100
AcDbLine
 10
-13.40621467411365
 20
12.99537356930036
 30
0.0
 11
-22.51576557345044
 21
12.99091558197701
 31
0.0
  0
LINE
  5
20A9
330
371D
100
AcDbEntity
  8
Haube
100
AcDbLine
 10
-22.51576557345044
 20
12.99091558197701
 30
0.0
 11
-22.5229813056179
 21
-3.601124801157323
 31
0.0
  0
LINE
  5
20AA
330
371D
100
AcDbEntity
  8
Haube
100
AcDbLine
 10
-25.46645822463691
 20
-13.71369164454301
 30
0.0
 11
-25.45138179800754
 21
25.77529418575135
 31
0.0
  0
LINE
  5
20AB
330
371D
100
AcDbEntity
  8
Haube
100
AcDbLine
 10
-25.45138179800754
 20
25.77529418575135
 30
0.0
 11
-34.61061411351091
 21
25.78975009749861
 31
0.0
  0
LINE
  5
20AC
330
371D
100
AcDbEntity
  8
Haube
100
AcDbLine
 10
-34.61061411351091
 20
25.78975009749861
 30
0.0
 11
-34.5871527436213
 21
-13.69819281905743
 31
0.0
  0
LINE
  5
20AD
330
371D
100
AcDbEntity
  8
Haube
100
AcDbLine
 10
-34.5871527436213
 20
-13.69819281905743
 30
0.0
 11
-25.46645822463691
 21
-13.71369164454301
 31
0.0
  0
LINE
  5
20AE
330
371D
100
AcDbEntity
  8
Haube
100
AcDbLine
 10
-36.94027733296852
 20
-13.76400231501706
 30
0.0
 11
-36.96549213530916
 21
-9.222188386324083
 31
0.0
  0
LINE
  5
20AF
330
371D
100
AcDbEntity
  8
Haube
100
AcDbLine
 10
-42.0317189953285
 20
-3.677714717801445
 30
0.0
 11
-42.00161102030257
 21
3.855909880749999
 31
0.0
  0
LINE
  5
20B0
330
371D
100
AcDbEntity
  8
Haube
100
AcDbLine
 10
-36.9254727155575
 20
8.424693817824306
 30
0.0
 11
-36.92552514128147
 21
12.9690242773677
 31
0.0
  0
LINE
  5
20B1
330
371D
100
AcDbEntity
  8
Haube
100
AcDbLine
 10
-51.24521771859709
 20
-3.988572749630754
 30
0.0
 11
-51.23272519827
 21
3.698542320156247
 31
0.0
  0
LINE
  5
20B2
330
371D
100
AcDbEntity
  8
Haube
100
AcDbLine
 10
-53.58439525898144
 20
-4.034883776564704
 30
0.0
 11
-53.68284211275672
 21
3.555699027030272
 31
0.0
  0
LINE
  5
20B3
330
371D
100
AcDbEntity
  8
Haube
100
AcDbLine
 10
-53.68284211275672
 20
3.555699027030272
 30
0.0
 11
-54.07920824767938
 21
5.777815886872842
 31
0.0
  0
LINE
  5
20B4
330
371D
100
AcDbEntity
  8
Haube
100
AcDbLine
 10
-62.72774783216368
 20
12.54456585068409
 30
0.0
 11
-62.7721429933378
 21
-13.46332860958776
 31
0.0
  0
LINE
  5
20B5
330
371D
100
AcDbEntity
  8
Haube
100
AcDbLine
 10
-65.08432642117491
 20
-8.84573081790639
 30
0.0
 11
-65.14659573723769
 21
-13.73042506756415
 31
0.0
  0
LINE
  5
20B6
330
371D
100
AcDbEntity
  8
Haube
100
AcDbLine
 10
-79.41186237496427
 20
-3.456108817755086
 30
0.0
 11
-70.21751970050968
 21
-3.425807860330168
 31
0.0
  0
LINE
  5
20B7
330
371D
100
AcDbEntity
  8
Haube
100
AcDbLine
 10
-65.11580942448846
 20
12.82580612805166
 30
0.0
 11
-65.12282813232137
 21
7.839914509335271
 31
0.0
  0
LINE
  5
20B8
330
371D
100
AcDbEntity
  8
Haube
100
AcDbLine
 10
-70.28763154361724
 20
2.464478635322308
 30
0.0
 11
-65.12016465076852
 21
2.451280384186935
 31
0.0
  0
LINE
  5
20B9
330
371D
100
AcDbEntity
  8
Haube
100
AcDbLine
 10
-65.12016465076852
 20
2.451280384186935
 30
0.0
 11
-65.14527524029135
 21
-2.04020931378858
 31
0.0
  0
LINE
  5
20BA
330
371D
100
AcDbEntity
  8
Haube
100
AcDbLine
 10
-65.14527524029135
 20
-2.04020931378858
 30
0.0
 11
-79.42493986343491
 21
-2.090698862611424
 31
0.0
  0
LINE
  5
20BB
330
371D
100
AcDbEntity
  8
Haube
100
AcDbLine
 10
-79.42493986343491
 20
-2.090698862611424
 30
0.0
 11
-79.44376583126379
 21
2.3141968481287
 31
0.0
  0
LINE
  5
20BC
330
371D
100
AcDbEntity
  8
Haube
100
AcDbLine
 10
-79.44376583126379
 20
2.3141968481287
 30
0.0
 11
-79.10766788304376
 21
5.614376883074922
 31
0.0
  0
ARC
  5
20BD
330
371D
100
AcDbEntity
  8
Haube
100
AcDbCircle
 10
-6.594397986119135
 20
-2.126384182185955
 30
0.0
 40
6.880115119515445
100
AcDbArc
 50
191.3283789165809
 51
256.4304130391642
  0
ARC
  5
20BE
330
371D
100
AcDbEntity
  8
Haube
100
AcDbCircle
 10
61.81569682583771
 20
-5.59052373418569
 30
0.0
 40
3.465335954399648
100
AcDbArc
 50
197.7375699027032
 51
291.8986864363046
  0
ARC
  5
20BF
330
371D
100
AcDbEntity
  8
Haube
100
AcDbCircle
 10
66.08839440253443
 20
-3.804230636789782
 30
0.0
 40
8.08908119562391
100
AcDbArc
 50
177.0088721913785
 51
200.580552897841
  0
ARC
  5
20C0
330
371D
100
AcDbEntity
  8
Haube
100
AcDbCircle
 10
63.7690590157002
 20
3.212183874532585
 30
0.0
 40
5.868063068148834
100
AcDbArc
 50
131.8388716045261
 51
186.7121421076549
  0
ARC
  5
20C1
330
371D
100
AcDbEntity
  8
Haube
100
AcDbCircle
 10
61.65347252008864
 20
5.972180212612093
 30
0.0
 40
2.415190679782093
100
AcDbArc
 50
53.02824135621637
 51
138.1348484534522
  0
ARC
  5
20C2
330
371D
100
AcDbEntity
  8
Haube
100
AcDbCircle
 10
60.56310289368571
 20
0.6556632360622585
 30
0.0
 40
12.4949409949153
100
AcDbArc
 50
78.22450196758898
 51
156.3088193607317
  0
ARC
  5
20C3
330
371D
100
AcDbEntity
  8
Haube
100
AcDbCircle
 10
60.28642958549683
 20
-2.510028425566896
 30
0.0
 40
11.50347917010731
100
AcDbArc
 50
184.4085208254215
 51
284.066119967317
  0
ARC
  5
20C4
330
371D
100
AcDbEntity
  8
Haube
100
AcDbCircle
 10
22.31189800615937
 20
2.858166114613544
 30
0.0
 40
9.916108101087822
100
AcDbArc
 50
5.163100577307127
 51
85.19298485882886
  0
ARC
  5
20C5
330
371D
100
AcDbEntity
  8
Haube
100
AcDbCircle
 10
22.69187959969666
 20
-3.681467190428549
 30
0.0
 40
9.595649929044457
100
AcDbArc
 50
272.4284921633388
 51
359.0530309185102
  0
ARC
  5
20C6
330
371D
100
AcDbEntity
  8
Haube
100
AcDbCircle
 10
18.07368079389265
 20
1.654430780357204
 30
0.0
 40
11.67814363559688
100
AcDbArc
 50
76.72737295063448
 51
175.8033974011186
  0
ARC
  5
20C7
330
371D
100
AcDbEntity
  8
Haube
100
AcDbCircle
 10
19.77560350495334
 20
3.799902196665759
 30
0.0
 40
4.344999912009093
100
AcDbArc
 50
77.07076632154028
 51
195.2188866391776
  0
ARC
  5
20C8
330
371D
100
AcDbEntity
  8
Haube
100
AcDbCircle
 10
20.05728163261159
 20
-4.200563228245187
 30
0.0
 40
4.509651760500534
100
AcDbArc
 50
167.58434585167
 51
279.3029508913697
  0
ARC
  5
20C9
330
371D
100
AcDbEntity
  8
Haube
100
AcDbCircle
 10
-6.225830460311609
 20
-3.891947023989121
 30
0.0
 40
9.476278108391629
100
AcDbArc
 50
272.6145480103859
 51
0.5129092994454413
  0
ARC
  5
20CA
330
371D
100
AcDbEntity
  8
Haube
100
AcDbCircle
 10
-11.67179038971309
 20
-3.332627568771342
 30
0.0
 40
10.85451219803143
100
AcDbArc
 50
181.4174130709465
 51
288.6294980061915
  0
ARC
  5
20CB
330
371D
100
AcDbEntity
  8
Haube
100
AcDbCircle
 10
17.9281960331912
 20
-2.377037860110693
 30
0.0
 40
11.50347917011079
100
AcDbArc
 50
184.4085208254337
 51
284.0661199672955
  0
ARC
  5
20CC
330
371D
100
AcDbEntity
  8
Haube
100
AcDbCircle
 10
-37.53498296469167
 20
-4.655704134365192
 30
0.0
 40
4.601858127771637
100
AcDbArc
 50
167.7298961013555
 51
277.1087121812191
  0
ARC
  5
20CD
330
371D
100
AcDbEntity
  8
Haube
100
AcDbCircle
 10
-37.69540305851845
 20
4.17581474239454
 30
0.0
 40
4.318074354458641
100
AcDbArc
 50
79.7290062631687
 51
184.2486546998726
  0
ARC
  5
20CE
330
371D
100
AcDbEntity
  8
Haube
100
AcDbCircle
 10
-39.94622432272567
 20
1.955448331134624
 30
0.0
 40
11.42030991997249
100
AcDbArc
 50
74.66261361716388
 51
171.2205688462594
  0
ARC
  5
20CF
330
371D
100
AcDbEntity
  8
Haube
100
AcDbCircle
 10
-40.23194734906192
 20
-3.22655971224163
 30
0.0
 40
11.03960090318615
100
AcDbArc
 50
183.9580122274741
 51
287.3476798575859
  0
ARC
  5
20D0
330
371D
100
AcDbEntity
  8
Haube
100
AcDbCircle
 10
-63.62426287190614
 20
2.488539370944539
 30
0.0
 40
10.09591044818201
100
AcDbArc
 50
19.01422321274
 51
84.90543456563968
  0
ARC
  5
20D1
330
371D
100
AcDbEntity
  8
Haube
100
AcDbCircle
 10
-63.17873461613873
 20
-3.876296701168184
 30
0.0
 40
9.595649929045132
100
AcDbArc
 50
272.42849216334
 51
359.0530309185057
  0
ARC
  5
20D2
330
371D
100
AcDbEntity
  8
Haube
100
AcDbCircle
 10
-67.94241818264767
 20
-2.571867370853346
 30
0.0
 40
11.50347917010696
100
AcDbArc
 50
184.4085208254222
 51
284.066119967318
  0
ARC
  5
20D3
330
371D
100
AcDbEntity
  8
Haube
100
AcDbCircle
 10
-65.8133325832219
 20
-4.395392738985026
 30
0.0
 40
4.509651760502186
100
AcDbArc
 50
167.5843458516735
 51
279.3029508913417
  0
ARC
  5
20D4
330
371D
100
AcDbEntity
  8
Haube
100
AcDbCircle
 10
-66.0950107109079
 20
3.605072685931597
 30
0.0
 40
4.344999911985449
100
AcDbArc
 50
77.0707663211218
 51
195.2188866393473
  0
ARC
  5
20D5
330
371D
100
AcDbEntity
  8
Haube
100
AcDbCircle
 10
-67.66574487442846
 20
0.5938242907506377
 30
0.0
 40
12.49494099495361
100
AcDbArc
 50
78.22450196776478
 51
156.308819360674
  0
ARC
  5
20D6
330
371D
100
AcDbEntity
  8
Haube
100
AcDbCircle
 10
65.0399477124001
 20
3.097297231618916
 30
0.0
 40
9.520282981283255
100
AcDbArc
 50
3.132517563350226
 51
87.22356787278966
  0
ARC
  5
20D7
330
371D
100
AcDbEntity
  8
Haube
100
AcDbCircle
 10
65.05011315200584
 20
-3.814457755882756
 30
0.0
 40
9.595649929044734
100
AcDbArc
 50
272.4284921633383
 51
359.0530309185115
  0
LINE
  5
20D8
330
371D
100
AcDbEntity
  8
Haube
100
AcDbLine
 10
74.54600565538739
 20
3.617537972315655
 30
0.0
 11
74.64445250916279
 21
-3.973044831278611
 31
0.0
  0
LINE
  5
20D9
330
371D
100
AcDbEntity
  8
Haube
100
AcDbLine
 10
65.45670477480641
 20
-13.40148966430182
 30
0.0
 11
65.50109993598058
 21
12.60640479596998
 31
0.0
  0
LINE
  5
20DA
330
371D
100
AcDbEntity
  8
Haube
100
AcDbLine
 10
63.11303834365584
 20
12.8876450733373
 30
0.0
 11
63.10601963582287
 21
7.901753454621311
 31
0.0
  0
LINE
  5
20DB
330
371D
100
AcDbEntity
  8
Haube
100
AcDbLine
 10
57.94121622452697
 20
2.526317580607942
 30
0.0
 11
63.10868311737566
 21
2.513119329472566
 31
0.0
  0
LINE
  5
20DC
330
371D
100
AcDbEntity
  8
Haube
100
AcDbLine
 10
63.10868311737566
 20
2.513119329472566
 30
0.0
 11
63.08357252785282
 21
-1.978370368502846
 31
0.0
  0
LINE
  5
20DD
330
371D
100
AcDbEntity
  8
Haube
100
AcDbLine
 10
63.08357252785282
 20
-1.978370368502846
 30
0.0
 11
48.80390790470928
 21
-2.028859917325639
 31
0.0
  0
LINE
  5
20DE
330
371D
100
AcDbEntity
  8
Haube
100
AcDbLine
 10
48.80390790470928
 20
-2.028859917325639
 30
0.0
 11
48.78508193688043
 21
2.376035793415253
 31
0.0
  0
LINE
  5
20DF
330
371D
100
AcDbEntity
  8
Haube
100
AcDbLine
 10
48.78508193688043
 20
2.376035793415253
 30
0.0
 11
49.12117988510028
 21
5.676215828360655
 31
0.0
  0
LINE
  5
20E0
330
371D
100
AcDbEntity
  8
Haube
100
AcDbLine
 10
58.01132806763447
 20
-3.363968915044074
 30
0.0
 11
48.81698539317989
 21
-3.394269872469403
 31
0.0
  0
LINE
  5
20E1
330
371D
100
AcDbEntity
  8
Haube
100
AcDbLine
 10
63.10815108582302
 20
-8.805817696283157
 30
0.0
 11
63.08225203090662
 21
-13.66858612227852
 31
0.0
  0
LINE
  5
20E2
330
371D
100
AcDbEntity
  8
Haube
100
AcDbLine
 10
47.41725918478839
 20
-7.175252161826882
 30
0.0
 11
41.00231246103316
 21
-0.7604534485870549
 31
0.0
  0
LINE
  5
20E3
330
371D
100
AcDbEntity
  8
Haube
100
AcDbLine
 10
41.00231246103316
 20
-0.7604534485870549
 30
0.0
 11
34.58751374779332
 21
-7.175400172342086
 31
0.0
  0
LINE
  5
20E4
330
371D
100
AcDbEntity
  8
Haube
100
AcDbLine
 10
34.58751374779332
 20
-7.175400172342086
 30
0.0
 11
41.00246047154839
 21
-13.59019888558207
 31
0.0
  0
LINE
  5
210A
330
371D
100
AcDbEntity
  8
Batteriehalter
100
AcDbLine
 10
-47.06381209524005
 20
331.8142641418434
 30
0.0
 11
46.93618790475995
 21
331.8142641418434
 31
0.0
  0
LINE
  5
210B
330
371D
100
AcDbEntity
  8
Batteriehalter
100
AcDbLine
 10
51.93618790475995
 20
336.8142641418434
 30
0.0
 11
51.93618790475995
 21
345.8142641418434
 31
0.0
  0
LINE
  5
210C
330
371D
100
AcDbEntity
  8
Batteriehalter
100
AcDbLine
 10
46.93618790475995
 20
350.8142641418434
 30
0.0
 11
-47.06381209524005
 21
350.8142641418434
 31
0.0
  0
LINE
  5
210D
330
371D
100
AcDbEntity
  8
Batteriehalter
100
AcDbLine
 10
-52.06381209524004
 20
345.8142641418434
 30
0.0
 11
-52.06381209524004
 21
336.8142641418434
 31
0.0
  0
ARC
  5
210E
330
371D
100
AcDbEntity
  8
Batteriehalter
100
AcDbCircle
 10
-47.06381209524004
 20
345.8142641418434
 30
0.0
 40
5.0
100
AcDbArc
 50
90.00000000000009
 51
180.0
  0
ARC
  5
210F
330
371D
100
AcDbEntity
  8
Batteriehalter
100
AcDbCircle
 10
-47.06381209524005
 20
336.8142641418434
 30
0.0
 40
5.0
100
AcDbArc
 50
180.0
 51
270.0
  0
ARC
  5
2110
330
371D
100
AcDbEntity
  8
Batteriehalter
100
AcDbCircle
 10
46.93618790475996
 20
336.8142641418434
 30
0.0
 40
5.0
100
AcDbArc
 50
269.9999999999999
 51
0.0
  0
ARC
  5
2111
330
371D
100
AcDbEntity
  8
Batteriehalter
100
AcDbCircle
 10
46.93618790475995
 20
345.8142641418434
 30
0.0
 40
5.0
100
AcDbArc
 50
0.0
 51
90.0
  0
LINE
  5
212D
330
371D
100
AcDbEntity
  8
Batteriehalter
100
AcDbLine
 10
49.92490832236923
 20
314.2772341578884
 30
0.0
 11
23.75556157785897
 21
314.2772341578884
 31
0.0
  0
LINE
  5
212F
330
371D
100
AcDbEntity
  8
Batteriehalter
100
AcDbLine
 10
23.75556157785897
 20
302.0496441014561
 30
0.0
 11
49.92490832236923
 21
302.0496441014561
 31
0.0
  0
ARC
  5
2131
330
371D
100
AcDbEntity
  8
Batteriehalter
100
AcDbCircle
 10
23.75556157785897
 20
312.2772341578884
 30
0.0
 40
2.0
100
AcDbArc
 50
90.0
 51
180.0
  0
ARC
  5
2132
330
371D
100
AcDbEntity
  8
Batteriehalter
100
AcDbCircle
 10
49.92490832236923
 20
312.2772341578884
 30
0.0
 40
2.0
100
AcDbArc
 50
0.0
 51
90.0
  0
ARC
  5
2133
330
371D
100
AcDbEntity
  8
Batteriehalter
100
AcDbCircle
 10
49.92490832236923
 20
304.0496441014561
 30
0.0
 40
2.0
100
AcDbArc
 50
270.0
 51
0.0
  0
ARC
  5
2134
330
371D
100
AcDbEntity
  8
Batteriehalter
100
AcDbCircle
 10
23.75556157785897
 20
304.0496441014561
 30
0.0
 40
2.0
100
AcDbArc
 50
180.0
 51
270.0
  0
LINE
  5
213C
330
371D
100
AcDbEntity
  8
Deckel unten
100
AcDbLine
 10
-190.5059166785264
 20
-306.380421515436
 30
0.0
 11
-190.5115688781703
 21
-282.2416424145711
 31
0.0
  0
LINE
  5
213D
330
371D
100
AcDbEntity
  8
Deckel unten
100
AcDbLine
 10
190.5445421218018
 20
-306.380421515436
 30
0.0
 11
190.5388899221579
 21
-282.2416424145711
 31
0.0
  0
ARC
  5
2141
330
371D
100
AcDbEntity
  8
WR Halter
100
AcDbCircle
 10
-97.50856353171764
 20
-440.8664722597948
 30
0.0
 40
10.0
100
AcDbArc
 50
90.0
 51
180.0
  0
LINE
  5
2146
330
371D
100
AcDbEntity
  8
WR Halter
100
AcDbLine
 10
107.4914364682826
 20
-440.8664722597949
 30
0.0
 11
107.4914364682825
 21
-468.8664722597949
 31
0.0
  0
LINE
  5
2147
330
371D
100
AcDbEntity
  8
WR Halter
100
AcDbLine
 10
107.4914364682825
 20
-469.866472259795
 30
0.0
 11
107.4914364682826
 21
-497.8664722597948
 31
0.0
  0
LINE
  5
2148
330
371D
100
AcDbEntity
  8
WR Halter
100
AcDbLine
 10
-107.5085635317175
 20
-440.8664722597949
 30
0.0
 11
-107.5085635317174
 21
-468.8664722597947
 31
0.0
  0
LINE
  5
2149
330
371D
100
AcDbEntity
  8
WR Halter
100
AcDbLine
 10
-97.50856353171764
 20
-507.8664722597947
 30
0.0
 11
97.49143646828264
 21
-507.8664722597949
 31
0.0
  0
LINE
  5
214A
330
371D
100
AcDbEntity
  8
WR Halter
100
AcDbLine
 10
-107.5085635317175
 20
-469.8664722597947
 30
0.0
 11
-107.5085635317174
 21
-497.8664722597948
 31
0.0
  0
LINE
  5
214B
330
371D
100
AcDbEntity
  8
WR Halter
100
AcDbLine
 10
107.4914364682825
 20
-469.866472259795
 30
0.0
 11
105.4914364682825
 21
-469.3664722597949
 31
0.0
  0
LINE
  5
214C
330
371D
100
AcDbEntity
  8
WR Halter
100
AcDbLine
 10
105.4914364682825
 20
-469.3664722597949
 30
0.0
 11
107.4914364682825
 21
-468.8664722597949
 31
0.0
  0
LINE
  5
214D
330
371D
100
AcDbEntity
  8
WR Halter
100
AcDbLine
 10
-107.5085635317175
 20
-469.8664722597947
 30
0.0
 11
-105.5085635317174
 21
-469.3664722597948
 31
0.0
  0
LINE
  5
214E
330
371D
100
AcDbEntity
  8
WR Halter
100
AcDbLine
 10
-105.5085635317174
 20
-469.3664722597948
 30
0.0
 11
-107.5085635317174
 21
-468.8664722597947
 31
0.0
  0
ARC
  5
214F
330
371D
100
AcDbEntity
  8
WR Halter
100
AcDbCircle
 10
-97.50856353171764
 20
-497.8664722597947
 30
0.0
 40
10.0
100
AcDbArc
 50
180.0
 51
270.0
  0
ARC
  5
2150
330
371D
100
AcDbEntity
  8
WR Halter
100
AcDbCircle
 10
97.49143646828264
 20
-497.8664722597947
 30
0.0
 40
10.0
100
AcDbArc
 50
270.0
 51
0.0
  0
LINE
  5
2151
330
371D
100
AcDbEntity
  8
WR Halter
100
AcDbLine
 10
97.49143646828259
 20
-430.8664722597949
 30
0.0
 11
-97.50856353171753
 21
-430.8664722597948
 31
0.0
  0
ARC
  5
2152
330
371D
100
AcDbEntity
  8
WR Halter
100
AcDbCircle
 10
97.49143646828259
 20
-440.8664722597949
 30
0.0
 40
10.0
100
AcDbArc
 50
0.0
 51
90.0
  0
ARC
  5
2162
330
371D
100
AcDbEntity
  8
Boardhalter
100
AcDbCircle
 10
-94.00505560709851
 20
-552.4621754662742
 30
0.0
 40
2.0
100
AcDbArc
 50
90.0
 51
180.0
  0
ARC
  5
2163
330
371D
100
AcDbEntity
  8
Boardhalter
100
AcDbCircle
 10
-57.06058961235976
 20
-552.4621754662742
 30
0.0
 40
2.0
100
AcDbArc
 50
0.0
 51
90.0
  0
ARC
  5
2164
330
371D
100
AcDbEntity
  8
Deckel unten
100
AcDbCircle
 10
-94.00505560709851
 20
-552.4621754662742
 30
0.0
 40
2.0
100
AcDbArc
 50
90.0
 51
180.0
  0
ARC
  5
2166
330
371D
100
AcDbEntity
  8
Deckel unten
100
AcDbCircle
 10
-57.06058961235976
 20
-552.4621754662742
 30
0.0
 40
2.0
100
AcDbArc
 50
0.0
 51
89.99999999999996
  0
ARC
  5
2167
330
371D
100
AcDbEntity
  8
Deckel unten
100
AcDbCircle
 10
-57.06058961235976
 20
-565.9044413381771
 30
0.0
 40
2.0
100
AcDbArc
 50
270.0
 51
0.0
  0
ARC
  5
2168
330
371D
100
AcDbEntity
  8
Deckel unten
100
AcDbCircle
 10
-94.00505560709851
 20
-565.904441338177
 30
0.0
 40
2.0
100
AcDbArc
 50
180.0
 51
270.0
  0
ARC
  5
2179
330
371D
100
AcDbEntity
  8
Boardhalter
100
AcDbCircle
 10
105.5904998588731
 20
-454.5676950620085
 30
0.0
 40
5.0
100
AcDbArc
 50
0.0
 51
90.0
  0
ARC
  5
217A
330
371D
100
AcDbEntity
  8
Boardhalter
100
AcDbCircle
 10
105.5904998588731
 20
-489.5804215154361
 30
0.0
 40
5.0
100
AcDbArc
 50
270.0
 51
0.0
  0
ARC
  5
2182
330
371D
100
AcDbEntity
  8
Boardhalter
100
AcDbCircle
 10
116.0760720647905
 20
-472.0763771283755
 30
0.0
 40
15.48557237953141
100
AcDbArc
 50
120.7872401939973
 51
239.2127598060027
  0
ARC
  5
2185
330
371D
100
AcDbEntity
  8
Boardhalter
100
AcDbCircle
 10
105.5904998588731
 20
-454.4777564087988
 30
0.0
 40
5.0
100
AcDbArc
 50
300.787240193997
 51
0.0
  0
ARC
  5
2186
330
371D
100
AcDbEntity
  8
Boardhalter
100
AcDbCircle
 10
105.5904998588731
 20
-489.6749978479521
 30
0.0
 40
5.0
100
AcDbArc
 50
0.0
 51
59.21275980600264
  0
CIRCLE
  5
218A
330
371D
100
AcDbEntity
  8
Boardhalter
100
AcDbCircle
 10
103.5445421218017
 20
-456.1023675967625
 30
0.0
 40
2.2
  0
CIRCLE
  5
218B
330
371D
100
AcDbEntity
  8
Boardhalter
100
AcDbCircle
 10
103.5445421218018
 20
-488.1718832473832
 30
0.0
 40
2.2
  0
LINE
  5
218C
330
371D
100
AcDbEntity
  8
Boardhalter
100
AcDbLine
 10
110.5904998588731
 20
-454.5676950620085
 30
0.0
 11
110.5904998588731
 21
-454.4777564087988
 31
0.0
  0
LINE
  5
218D
330
371D
100
AcDbEntity
  8
Boardhalter
100
AcDbLine
 10
110.5904998588731
 20
-489.6749978479521
 30
0.0
 11
110.5904998588731
 21
-489.5804215154361
 31
0.0
  0
LINE
  5
2192
330
371D
100
AcDbEntity
  8
Boardhalter
100
AcDbLine
 10
97.54454212180173
 20
-449.5676950620085
 30
0.0
 11
105.5904998588731
 21
-449.5676950620085
 31
0.0
  0
LINE
  5
2193
330
371D
100
AcDbEntity
  8
Boardhalter
100
AcDbLine
 10
97.54454212180175
 20
-494.5804215154361
 30
0.0
 11
105.5904998588731
 21
-494.5804215154361
 31
0.0
  0
LINE
  5
2195
330
371D
100
AcDbEntity
  8
Boardhalter
100
AcDbLine
 10
92.54454212180177
 20
-564.380421515436
 30
0.0
 11
32.54454212180177
 21
-564.380421515436
 31
0.0
  0
CIRCLE
  5
219B
330
371D
100
AcDbEntity
  8
Boardhalter
100
AcDbCircle
 10
72.54454212180175
 20
-355.8453300609353
 30
0.0
 40
2.2
  0
CIRCLE
  5
219C
330
371D
100
AcDbEntity
  8
Boardhalter
100
AcDbCircle
 10
72.54454212180174
 20
-455.8453300609353
 30
0.0
 40
2.2
  0
LINE
  5
21A3
330
371D
100
AcDbEntity
  8
Rueckwand
100
AcDbLine
 10
-443.3628581553075
 20
324.9571392252469
 30
0.0
 11
-357.3628581553075
 21
324.9571392252469
 31
0.0
  0
LINE
  5
21A4
330
371D
100
AcDbEntity
  8
Rueckwand
100
AcDbLine
 10
357.27623470102
 20
326.8376355507713
 30
0.0
 11
443.27623470102
 21
326.8376355507713
 31
0.0
  0
LINE
  5
21A5
330
371D
100
AcDbEntity
  8
Rueckwand
100
AcDbLine
 10
-443.3628581553075
 20
319.9571392252469
 30
0.0
 11
-357.3628581553075
 21
319.9571392252469
 31
0.0
  0
LINE
  5
21A6
330
371D
100
AcDbEntity
  8
Rueckwand
100
AcDbLine
 10
357.2762347010201
 20
321.8376355507713
 30
0.0
 11
443.27623470102
 21
321.8376355507713
 31
0.0
  0
LINE
  5
21A8
330
371D
100
AcDbEntity
  8
Rueckwand
100
AcDbLine
 10
-330.8149995627111
 20
324.8534031448435
 30
0.0
 11
-244.8149995627111
 21
324.8534031448435
 31
0.0
  0
LINE
  5
21A9
330
371D
100
AcDbEntity
  8
Rueckwand
100
AcDbLine
 10
-330.8149995627111
 20
319.8534031448435
 30
0.0
 11
-244.8149995627111
 21
319.8534031448435
 31
0.0
  0
LINE
  5
21AA
330
371D
100
AcDbEntity
  8
Rueckwand
100
AcDbLine
 10
-445.3628581553075
 20
321.9571392252469
 30
0.0
 11
-445.3628581553075
 21
322.9571392252469
 31
0.0
  0
LINE
  5
21AB
330
371D
100
AcDbEntity
  8
Rueckwand
100
AcDbLine
 10
-355.3628581553075
 20
322.9571392252469
 30
0.0
 11
-355.3628581553075
 21
321.9571392252469
 31
0.0
  0
LINE
  5
21AC
330
371D
100
AcDbEntity
  8
Rueckwand
100
AcDbLine
 10
-332.8149995627111
 20
321.8534031448435
 30
0.0
 11
-332.8149995627111
 21
322.8534031448435
 31
0.0
  0
LINE
  5
21AD
330
371D
100
AcDbEntity
  8
Rueckwand
100
AcDbLine
 10
-242.8149995627111
 20
322.8534031448435
 30
0.0
 11
-242.8149995627111
 21
321.8534031448435
 31
0.0
  0
LINE
  5
21AE
330
371D
100
AcDbEntity
  8
Rueckwand
100
AcDbLine
 10
355.27623470102
 20
323.8376355507713
 30
0.0
 11
355.27623470102
 21
324.8376355507713
 31
0.0
  0
LINE
  5
21AF
330
371D
100
AcDbEntity
  8
Rueckwand
100
AcDbLine
 10
445.27623470102
 20
324.8376355507713
 30
0.0
 11
445.27623470102
 21
323.8376355507713
 31
0.0
  0
ARC
  5
21B1
330
371D
100
AcDbEntity
  8
Rueckwand
100
AcDbCircle
 10
-443.3628581553075
 20
322.9571392252469
 30
0.0
 40
2.0
100
AcDbArc
 50
90.0
 51
180.0
  0
ARC
  5
21B2
330
371D
100
AcDbEntity
  8
Rueckwand
100
AcDbCircle
 10
-443.3628581553075
 20
321.9571392252469
 30
0.0
 40
2.0
100
AcDbArc
 50
180.0
 51
270.0
  0
ARC
  5
21B3
330
371D
100
AcDbEntity
  8
Rueckwand
100
AcDbCircle
 10
-357.3628581553075
 20
321.9571392252469
 30
0.0
 40
2.0
100
AcDbArc
 50
270.0
 51
0.0
  0
ARC
  5
21B4
330
371D
100
AcDbEntity
  8
Rueckwand
100
AcDbCircle
 10
-357.3628581553075
 20
322.9571392252469
 30
0.0
 40
2.0
100
AcDbArc
 50
0.0
 51
90.0
  0
ARC
  5
21B5
330
371D
100
AcDbEntity
  8
Rueckwand
100
AcDbCircle
 10
-330.8149995627111
 20
322.8534031448435
 30
0.0
 40
2.0
100
AcDbArc
 50
90.0
 51
180.0
  0
ARC
  5
21B6
330
371D
100
AcDbEntity
  8
Rueckwand
100
AcDbCircle
 10
-330.8149995627111
 20
321.8534031448435
 30
0.0
 40
2.0
100
AcDbArc
 50
180.0
 51
270.0
  0
ARC
  5
21B7
330
371D
100
AcDbEntity
  8
Rueckwand
100
AcDbCircle
 10
-244.8149995627111
 20
321.8534031448435
 30
0.0
 40
2.0
100
AcDbArc
 50
270.0
 51
0.0
  0
ARC
  5
21B8
330
371D
100
AcDbEntity
  8
Rueckwand
100
AcDbCircle
 10
-244.8149995627111
 20
322.8534031448435
 30
0.0
 40
2.0
100
AcDbArc
 50
0.0
 51
90.0
  0
ARC
  5
21B9
330
371D
100
AcDbEntity
  8
Rueckwand
100
AcDbCircle
 10
357.2762347010201
 20
323.8376355507713
 30
0.0
 40
2.0
100
AcDbArc
 50
180.0
 51
270.0
  0
ARC
  5
21BA
330
371D
100
AcDbEntity
  8
Rueckwand
100
AcDbCircle
 10
357.27623470102
 20
324.8376355507713
 30
0.0
 40
2.0
100
AcDbArc
 50
90.0
 51
180.0
  0
ARC
  5
21BB
330
371D
100
AcDbEntity
  8
Rueckwand
100
AcDbCircle
 10
443.27623470102
 20
324.8376355507713
 30
0.0
 40
2.0
100
AcDbArc
 50
0.0
 51
90.0
  0
ARC
  5
21BC
330
371D
100
AcDbEntity
  8
Rueckwand
100
AcDbCircle
 10
443.27623470102
 20
323.8376355507713
 30
0.0
 40
2.0
100
AcDbArc
 50
270.0
 51
0.0
  0
LINE
  5
21BD
330
371D
100
AcDbEntity
  8
Rueckwand
100
AcDbLine
 10
355.27623470102
 20
313.8376355507713
 30
0.0
 11
355.27623470102
 21
314.8376355507713
 31
0.0
  0
LINE
  5
21BE
330
371D
100
AcDbEntity
  8
Rueckwand
100
AcDbLine
 10
445.27623470102
 20
314.8376355507713
 30
0.0
 11
445.27623470102
 21
313.8376355507713
 31
0.0
  0
ARC
  5
21BF
330
371D
100
AcDbEntity
  8
Rueckwand
100
AcDbCircle
 10
-443.3628581553075
 20
312.9571392252469
 30
0.0
 40
2.0
100
AcDbArc
 50
90.0
 51
180.0
  0
ARC
  5
21C0
330
371D
100
AcDbEntity
  8
Rueckwand
100
AcDbCircle
 10
-443.3628581553075
 20
311.9571392252469
 30
0.0
 40
2.0
100
AcDbArc
 50
180.0
 51
270.0
  0
ARC
  5
21C1
330
371D
100
AcDbEntity
  8
Rueckwand
100
AcDbCircle
 10
-357.3628581553075
 20
311.9571392252469
 30
0.0
 40
2.0
100
AcDbArc
 50
270.0
 51
0.0
  0
ARC
  5
21C2
330
371D
100
AcDbEntity
  8
Rueckwand
100
AcDbCircle
 10
-357.3628581553075
 20
312.9571392252469
 30
0.0
 40
2.0
100
AcDbArc
 50
0.0
 51
90.0
  0
ARC
  5
21C3
330
371D
100
AcDbEntity
  8
Rueckwand
100
AcDbCircle
 10
-330.8149995627111
 20
312.8534031448435
 30
0.0
 40
2.0
100
AcDbArc
 50
90.0
 51
180.0
  0
ARC
  5
21C4
330
371D
100
AcDbEntity
  8
Rueckwand
100
AcDbCircle
 10
-330.8149995627111
 20
311.8534031448435
 30
0.0
 40
2.0
100
AcDbArc
 50
180.0
 51
270.0
  0
ARC
  5
21C5
330
371D
100
AcDbEntity
  8
Rueckwand
100
AcDbCircle
 10
-244.8149995627111
 20
311.8534031448435
 30
0.0
 40
2.0
100
AcDbArc
 50
270.0
 51
0.0
  0
ARC
  5
21C6
330
371D
100
AcDbEntity
  8
Rueckwand
100
AcDbCircle
 10
-244.8149995627111
 20
312.8534031448435
 30
0.0
 40
2.0
100
AcDbArc
 50
0.0
 51
90.0
  0
ARC
  5
21C7
330
371D
100
AcDbEntity
  8
Rueckwand
100
AcDbCircle
 10
357.2762347010201
 20
313.8376355507713
 30
0.0
 40
2.0
100
AcDbArc
 50
180.0
 51
270.0
  0
ARC
  5
21C8
330
371D
100
AcDbEntity
  8
Rueckwand
100
AcDbCircle
 10
357.27623470102
 20
314.8376355507713
 30
0.0
 40
2.0
100
AcDbArc
 50
90.0
 51
180.0
  0
ARC
  5
21C9
330
371D
100
AcDbEntity
  8
Rueckwand
100
AcDbCircle
 10
443.27623470102
 20
314.8376355507713
 30
0.0
 40
2.0
100
AcDbArc
 50
0.0
 51
90.0
  0
ARC
  5
21CA
330
371D
100
AcDbEntity
  8
Rueckwand
100
AcDbCircle
 10
443.27623470102
 20
313.8376355507713
 30
0.0
 40
2.0
100
AcDbArc
 50
270.0
 51
0.0
  0
LINE
  5
21CB
330
371D
100
AcDbEntity
  8
Rueckwand
100
AcDbLine
 10
-443.3628581553075
 20
314.9571392252469
 30
0.0
 11
-357.3628581553075
 21
314.9571392252469
 31
0.0
  0
LINE
  5
21CC
330
371D
100
AcDbEntity
  8
Rueckwand
100
AcDbLine
 10
357.27623470102
 20
316.8376355507713
 30
0.0
 11
443.27623470102
 21
316.8376355507713
 31
0.0
  0
LINE
  5
21CD
330
371D
100
AcDbEntity
  8
Rueckwand
100
AcDbLine
 10
-443.3628581553075
 20
309.9571392252469
 30
0.0
 11
-357.3628581553075
 21
309.9571392252469
 31
0.0
  0
LINE
  5
21CE
330
371D
100
AcDbEntity
  8
Rueckwand
100
AcDbLine
 10
357.2762347010201
 20
311.8376355507713
 30
0.0
 11
443.27623470102
 21
311.8376355507713
 31
0.0
  0
LINE
  5
21CF
330
371D
100
AcDbEntity
  8
Rueckwand
100
AcDbLine
 10
-330.8149995627111
 20
314.8534031448435
 30
0.0
 11
-244.8149995627111
 21
314.8534031448435
 31
0.0
  0
LINE
  5
21D0
330
371D
100
AcDbEntity
  8
Rueckwand
100
AcDbLine
 10
-330.8149995627111
 20
309.8534031448435
 30
0.0
 11
-244.8149995627111
 21
309.8534031448435
 31
0.0
  0
LINE
  5
21D1
330
371D
100
AcDbEntity
  8
Rueckwand
100
AcDbLine
 10
-445.3628581553075
 20
311.9571392252469
 30
0.0
 11
-445.3628581553075
 21
312.9571392252469
 31
0.0
  0
LINE
  5
21D2
330
371D
100
AcDbEntity
  8
Rueckwand
100
AcDbLine
 10
-355.3628581553075
 20
312.9571392252469
 30
0.0
 11
-355.3628581553075
 21
311.9571392252469
 31
0.0
  0
LINE
  5
21D3
330
371D
100
AcDbEntity
  8
Rueckwand
100
AcDbLine
 10
-332.8149995627111
 20
311.8534031448435
 30
0.0
 11
-332.8149995627111
 21
312.8534031448435
 31
0.0
  0
LINE
  5
21D4
330
371D
100
AcDbEntity
  8
Rueckwand
100
AcDbLine
 10
-242.8149995627111
 20
312.8534031448435
 30
0.0
 11
-242.8149995627111
 21
311.8534031448435
 31
0.0
  0
LINE
  5
21D5
330
371D
100
AcDbEntity
  8
Rueckwand
100
AcDbLine
 10
355.27623470102
 20
303.8376355507713
 30
0.0
 11
355.27623470102
 21
304.8376355507713
 31
0.0
  0
LINE
  5
21D6
330
371D
100
AcDbEntity
  8
Rueckwand
100
AcDbLine
 10
445.27623470102
 20
304.8376355507713
 30
0.0
 11
445.27623470102
 21
303.8376355507713
 31
0.0
  0
ARC
  5
21D7
330
371D
100
AcDbEntity
  8
Rueckwand
100
AcDbCircle
 10
-443.3628581553075
 20
302.9571392252469
 30
0.0
 40
2.0
100
AcDbArc
 50
90.0
 51
180.0
  0
ARC
  5
21D8
330
371D
100
AcDbEntity
  8
Rueckwand
100
AcDbCircle
 10
-443.3628581553075
 20
301.9571392252469
 30
0.0
 40
2.0
100
AcDbArc
 50
180.0
 51
270.0
  0
ARC
  5
21D9
330
371D
100
AcDbEntity
  8
Rueckwand
100
AcDbCircle
 10
-357.3628581553075
 20
301.9571392252469
 30
0.0
 40
2.0
100
AcDbArc
 50
270.0
 51
0.0
  0
ARC
  5
21DA
330
371D
100
AcDbEntity
  8
Rueckwand
100
AcDbCircle
 10
-357.3628581553075
 20
302.9571392252469
 30
0.0
 40
2.0
100
AcDbArc
 50
0.0
 51
90.0
  0
ARC
  5
21DB
330
371D
100
AcDbEntity
  8
Rueckwand
100
AcDbCircle
 10
-330.8149995627111
 20
302.8534031448435
 30
0.0
 40
2.0
100
AcDbArc
 50
90.0
 51
180.0
  0
ARC
  5
21DC
330
371D
100
AcDbEntity
  8
Rueckwand
100
AcDbCircle
 10
-330.8149995627111
 20
301.8534031448435
 30
0.0
 40
2.0
100
AcDbArc
 50
180.0
 51
270.0
  0
ARC
  5
21DD
330
371D
100
AcDbEntity
  8
Rueckwand
100
AcDbCircle
 10
-244.8149995627111
 20
301.8534031448435
 30
0.0
 40
2.0
100
AcDbArc
 50
270.0
 51
0.0
  0
ARC
  5
21DE
330
371D
100
AcDbEntity
  8
Rueckwand
100
AcDbCircle
 10
-244.8149995627111
 20
302.8534031448435
 30
0.0
 40
2.0
100
AcDbArc
 50
0.0
 51
90.0
  0
ARC
  5
21DF
330
371D
100
AcDbEntity
  8
Rueckwand
100
AcDbCircle
 10
357.2762347010201
 20
303.8376355507713
 30
0.0
 40
2.0
100
AcDbArc
 50
180.0
 51
270.0
  0
ARC
  5
21E0
330
371D
100
AcDbEntity
  8
Rueckwand
100
AcDbCircle
 10
357.27623470102
 20
304.8376355507713
 30
0.0
 40
2.0
100
AcDbArc
 50
90.0
 51
180.0
  0
ARC
  5
21E1
330
371D
100
AcDbEntity
  8
Rueckwand
100
AcDbCircle
 10
443.27623470102
 20
304.8376355507713
 30
0.0
 40
2.0
100
AcDbArc
 50
0.0
 51
90.0
  0
ARC
  5
21E2
330
371D
100
AcDbEntity
  8
Rueckwand
100
AcDbCircle
 10
443.27623470102
 20
303.8376355507713
 30
0.0
 40
2.0
100
AcDbArc
 50
270.0
 51
0.0
  0
LINE
  5
21E3
330
371D
100
AcDbEntity
  8
Rueckwand
100
AcDbLine
 10
-443.3628581553075
 20
304.9571392252469
 30
0.0
 11
-357.3628581553075
 21
304.9571392252469
 31
0.0
  0
LINE
  5
21E4
330
371D
100
AcDbEntity
  8
Rueckwand
100
AcDbLine
 10
357.27623470102
 20
306.8376355507713
 30
0.0
 11
443.27623470102
 21
306.8376355507713
 31
0.0
  0
LINE
  5
21E5
330
371D
100
AcDbEntity
  8
Rueckwand
100
AcDbLine
 10
-443.3628581553075
 20
299.9571392252469
 30
0.0
 11
-357.3628581553075
 21
299.9571392252469
 31
0.0
  0
LINE
  5
21E6
330
371D
100
AcDbEntity
  8
Rueckwand
100
AcDbLine
 10
357.2762347010201
 20
301.8376355507713
 30
0.0
 11
443.27623470102
 21
301.8376355507713
 31
0.0
  0
LINE
  5
21E7
330
371D
100
AcDbEntity
  8
Rueckwand
100
AcDbLine
 10
-330.8149995627111
 20
304.8534031448435
 30
0.0
 11
-244.8149995627111
 21
304.8534031448435
 31
0.0
  0
LINE
  5
21E8
330
371D
100
AcDbEntity
  8
Rueckwand
100
AcDbLine
 10
-330.8149995627111
 20
299.8534031448435
 30
0.0
 11
-244.8149995627111
 21
299.8534031448435
 31
0.0
  0
LINE
  5
21E9
330
371D
100
AcDbEntity
  8
Rueckwand
100
AcDbLine
 10
-445.3628581553075
 20
301.9571392252469
 30
0.0
 11
-445.3628581553075
 21
302.9571392252469
 31
0.0
  0
LINE
  5
21EA
330
371D
100
AcDbEntity
  8
Rueckwand
100
AcDbLine
 10
-355.3628581553075
 20
302.9571392252469
 30
0.0
 11
-355.3628581553075
 21
301.9571392252469
 31
0.0
  0
LINE
  5
21EB
330
371D
100
AcDbEntity
  8
Rueckwand
100
AcDbLine
 10
-332.8149995627111
 20
301.8534031448435
 30
0.0
 11
-332.8149995627111
 21
302.8534031448435
 31
0.0
  0
LINE
  5
21EC
330
371D
100
AcDbEntity
  8
Rueckwand
100
AcDbLine
 10
-242.8149995627111
 20
302.8534031448435
 30
0.0
 11
-242.8149995627111
 21
301.8534031448435
 31
0.0
  0
LINE
  5
21ED
330
371D
100
AcDbEntity
  8
Rueckwand
100
AcDbLine
 10
242.275272942777
 20
323.7239337284851
 30
0.0
 11
242.275272942777
 21
324.7239337284851
 31
0.0
  0
LINE
  5
21EE
330
371D
100
AcDbEntity
  8
Rueckwand
100
AcDbLine
 10
332.275272942777
 20
324.7239337284851
 30
0.0
 11
332.275272942777
 21
323.7239337284851
 31
0.0
  0
ARC
  5
21EF
330
371D
100
AcDbEntity
  8
Rueckwand
100
AcDbCircle
 10
-443.3628581553075
 20
292.9571392252469
 30
0.0
 40
2.0
100
AcDbArc
 50
90.0
 51
180.0
  0
ARC
  5
21F0
330
371D
100
AcDbEntity
  8
Rueckwand
100
AcDbCircle
 10
-443.3628581553075
 20
291.9571392252469
 30
0.0
 40
2.0
100
AcDbArc
 50
180.0
 51
270.0
  0
ARC
  5
21F1
330
371D
100
AcDbEntity
  8
Rueckwand
100
AcDbCircle
 10
-357.3628581553075
 20
291.9571392252469
 30
0.0
 40
2.0
100
AcDbArc
 50
270.0
 51
0.0
  0
ARC
  5
21F2
330
371D
100
AcDbEntity
  8
Rueckwand
100
AcDbCircle
 10
-357.3628581553075
 20
292.9571392252469
 30
0.0
 40
2.0
100
AcDbArc
 50
0.0
 51
90.0
  0
ARC
  5
21F3
330
371D
100
AcDbEntity
  8
Rueckwand
100
AcDbCircle
 10
-330.8149995627111
 20
292.8534031448435
 30
0.0
 40
2.0
100
AcDbArc
 50
90.0
 51
180.0
  0
ARC
  5
21F4
330
371D
100
AcDbEntity
  8
Rueckwand
100
AcDbCircle
 10
-330.8149995627111
 20
291.8534031448435
 30
0.0
 40
2.0
100
AcDbArc
 50
180.0
 51
270.0
  0
ARC
  5
21F5
330
371D
100
AcDbEntity
  8
Rueckwand
100
AcDbCircle
 10
-244.8149995627111
 20
291.8534031448435
 30
0.0
 40
2.0
100
AcDbArc
 50
270.0
 51
0.0
  0
ARC
  5
21F6
330
371D
100
AcDbEntity
  8
Rueckwand
100
AcDbCircle
 10
-244.8149995627111
 20
292.8534031448435
 30
0.0
 40
2.0
100
AcDbArc
 50
0.0
 51
90.0
  0
ARC
  5
21F7
330
371D
100
AcDbEntity
  8
Rueckwand
100
AcDbCircle
 10
244.275272942777
 20
323.7239337284851
 30
0.0
 40
2.0
100
AcDbArc
 50
180.0
 51
270.0
  0
ARC
  5
21F8
330
371D
100
AcDbEntity
  8
Rueckwand
100
AcDbCircle
 10
244.275272942777
 20
324.7239337284851
 30
0.0
 40
2.0
100
AcDbArc
 50
90.0
 51
180.0
  0
ARC
  5
21F9
330
371D
100
AcDbEntity
  8
Rueckwand
100
AcDbCircle
 10
330.275272942777
 20
324.7239337284851
 30
0.0
 40
2.0
100
AcDbArc
 50
0.0
 51
90.0
  0
ARC
  5
21FA
330
371D
100
AcDbEntity
  8
Rueckwand
100
AcDbCircle
 10
330.275272942777
 20
323.7239337284851
 30
0.0
 40
2.0
100
AcDbArc
 50
270.0
 51
0.0
  0
LINE
  5
21FB
330
371D
100
AcDbEntity
  8
Rueckwand
100
AcDbLine
 10
-443.3628581553075
 20
294.9571392252469
 30
0.0
 11
-357.3628581553075
 21
294.9571392252469
 31
0.0
  0
LINE
  5
21FC
330
371D
100
AcDbEntity
  8
Rueckwand
100
AcDbLine
 10
244.275272942777
 20
326.7239337284851
 30
0.0
 11
330.275272942777
 21
326.7239337284851
 31
0.0
  0
LINE
  5
21FD
330
371D
100
AcDbEntity
  8
Rueckwand
100
AcDbLine
 10
-443.3628581553075
 20
289.9571392252469
 30
0.0
 11
-357.3628581553075
 21
289.9571392252469
 31
0.0
  0
LINE
  5
21FE
330
371D
100
AcDbEntity
  8
Rueckwand
100
AcDbLine
 10
244.275272942777
 20
321.7239337284851
 30
0.0
 11
330.275272942777
 21
321.7239337284851
 31
0.0
  0
LINE
  5
21FF
330
371D
100
AcDbEntity
  8
Rueckwand
100
AcDbLine
 10
-330.8149995627111
 20
294.8534031448435
 30
0.0
 11
-244.8149995627111
 21
294.8534031448435
 31
0.0
  0
LINE
  5
2200
330
371D
100
AcDbEntity
  8
Rueckwand
100
AcDbLine
 10
-330.8149995627111
 20
289.8534031448435
 30
0.0
 11
-244.8149995627111
 21
289.8534031448435
 31
0.0
  0
LINE
  5
2201
330
371D
100
AcDbEntity
  8
Rueckwand
100
AcDbLine
 10
-445.3628581553075
 20
291.9571392252469
 30
0.0
 11
-445.3628581553075
 21
292.9571392252469
 31
0.0
  0
LINE
  5
2202
330
371D
100
AcDbEntity
  8
Rueckwand
100
AcDbLine
 10
-355.3628581553075
 20
292.9571392252469
 30
0.0
 11
-355.3628581553075
 21
291.9571392252469
 31
0.0
  0
LINE
  5
2203
330
371D
100
AcDbEntity
  8
Rueckwand
100
AcDbLine
 10
-332.8149995627111
 20
291.8534031448435
 30
0.0
 11
-332.8149995627111
 21
292.8534031448435
 31
0.0
  0
LINE
  5
2204
330
371D
100
AcDbEntity
  8
Rueckwand
100
AcDbLine
 10
-242.8149995627111
 20
292.8534031448435
 30
0.0
 11
-242.8149995627111
 21
291.8534031448435
 31
0.0
  0
LINE
  5
2205
330
371D
100
AcDbEntity
  8
Rueckwand
100
AcDbLine
 10
242.275272942777
 20
313.7239337284851
 30
0.0
 11
242.275272942777
 21
314.7239337284851
 31
0.0
  0
LINE
  5
2206
330
371D
100
AcDbEntity
  8
Rueckwand
100
AcDbLine
 10
332.275272942777
 20
314.7239337284851
 30
0.0
 11
332.275272942777
 21
313.7239337284851
 31
0.0
  0
ARC
  5
220F
330
371D
100
AcDbEntity
  8
Rueckwand
100
AcDbCircle
 10
244.275272942777
 20
313.7239337284851
 30
0.0
 40
2.0
100
AcDbArc
 50
180.0
 51
270.0
  0
ARC
  5
2210
330
371D
100
AcDbEntity
  8
Rueckwand
100
AcDbCircle
 10
244.275272942777
 20
314.7239337284851
 30
0.0
 40
2.0
100
AcDbArc
 50
90.0
 51
180.0
  0
ARC
  5
2211
330
371D
100
AcDbEntity
  8
Rueckwand
100
AcDbCircle
 10
330.275272942777
 20
314.7239337284851
 30
0.0
 40
2.0
100
AcDbArc
 50
0.0
 51
90.0
  0
ARC
  5
2212
330
371D
100
AcDbEntity
  8
Rueckwand
100
AcDbCircle
 10
330.275272942777
 20
313.7239337284851
 30
0.0
 40
2.0
100
AcDbArc
 50
270.0
 51
0.0
  0
LINE
  5
2214
330
371D
100
AcDbEntity
  8
Rueckwand
100
AcDbLine
 10
244.275272942777
 20
316.7239337284851
 30
0.0
 11
330.275272942777
 21
316.7239337284851
 31
0.0
  0
LINE
  5
2216
330
371D
100
AcDbEntity
  8
Rueckwand
100
AcDbLine
 10
244.275272942777
 20
311.7239337284851
 30
0.0
 11
330.275272942777
 21
311.7239337284851
 31
0.0
  0
LINE
  5
221D
330
371D
100
AcDbEntity
  8
Rueckwand
100
AcDbLine
 10
242.275272942777
 20
303.7239337284851
 30
0.0
 11
242.275272942777
 21
304.7239337284851
 31
0.0
  0
LINE
  5
221E
330
371D
100
AcDbEntity
  8
Rueckwand
100
AcDbLine
 10
332.275272942777
 20
304.7239337284851
 30
0.0
 11
332.275272942777
 21
303.7239337284851
 31
0.0
  0
ARC
  5
2227
330
371D
100
AcDbEntity
  8
Rueckwand
100
AcDbCircle
 10
244.275272942777
 20
303.7239337284851
 30
0.0
 40
2.0
100
AcDbArc
 50
180.0
 51
270.0
  0
ARC
  5
2228
330
371D
100
AcDbEntity
  8
Rueckwand
100
AcDbCircle
 10
244.275272942777
 20
304.7239337284851
 30
0.0
 40
2.0
100
AcDbArc
 50
90.0
 51
180.0
  0
ARC
  5
2229
330
371D
100
AcDbEntity
  8
Rueckwand
100
AcDbCircle
 10
330.275272942777
 20
304.7239337284851
 30
0.0
 40
2.0
100
AcDbArc
 50
0.0
 51
90.0
  0
ARC
  5
222A
330
371D
100
AcDbEntity
  8
Rueckwand
100
AcDbCircle
 10
330.275272942777
 20
303.7239337284851
 30
0.0
 40
2.0
100
AcDbArc
 50
270.0
 51
0.0
  0
LINE
  5
222C
330
371D
100
AcDbEntity
  8
Rueckwand
100
AcDbLine
 10
244.275272942777
 20
306.7239337284851
 30
0.0
 11
330.275272942777
 21
306.7239337284851
 31
0.0
  0
LINE
  5
222E
330
371D
100
AcDbEntity
  8
Rueckwand
100
AcDbLine
 10
244.275272942777
 20
301.7239337284851
 30
0.0
 11
330.275272942777
 21
301.7239337284851
 31
0.0
  0
LINE
  5
2295
330
371D
100
AcDbEntity
  8
Deckel unten
100
AcDbLine
 10
-33.0
 20
-365.0
 30
0.0
 11
53.0
 21
-365.0
 31
0.0
  0
LINE
  5
2296
330
371D
100
AcDbEntity
  8
Deckel unten
100
AcDbLine
 10
-33.0
 20
-370.0
 30
0.0
 11
53.0
 21
-370.0
 31
0.0
  0
LINE
  5
2297
330
371D
100
AcDbEntity
  8
Deckel unten
100
AcDbLine
 10
-147.5478585925964
 20
-367.8962639195968
 30
0.0
 11
-147.5478585925964
 21
-366.8962639195968
 31
0.0
  0
LINE
  5
2298
330
371D
100
AcDbEntity
  8
Deckel unten
100
AcDbLine
 10
-57.54785859259644
 20
-366.8962639195968
 30
0.0
 11
-57.54785859259644
 21
-367.8962639195968
 31
0.0
  0
LINE
  5
2299
330
371D
100
AcDbEntity
  8
Deckel unten
100
AcDbLine
 10
-35.0
 20
-368.0
 30
0.0
 11
-35.0
 21
-367.0
 31
0.0
  0
LINE
  5
229A
330
371D
100
AcDbEntity
  8
Deckel unten
100
AcDbLine
 10
55.0
 20
-367.0
 30
0.0
 11
55.0
 21
-368.0
 31
0.0
  0
LINE
  5
229B
330
371D
100
AcDbEntity
  8
Deckel unten
100
AcDbLine
 10
77.50260020773166
 20
-367.8962639195967
 30
0.0
 11
77.50260020773166
 21
-366.8962639195967
 31
0.0
  0
LINE
  5
229C
330
371D
100
AcDbEntity
  8
Deckel unten
100
AcDbLine
 10
167.5026002077317
 20
-366.8962639195967
 30
0.0
 11
167.5026002077317
 21
-367.8962639195967
 31
0.0
  0
ARC
  5
229D
330
371D
100
AcDbEntity
  8
Deckel unten
100
AcDbCircle
 10
-145.5478585925964
 20
-366.8962639195968
 30
0.0
 40
2.0
100
AcDbArc
 50
90.0
 51
180.0
  0
ARC
  5
229E
330
371D
100
AcDbEntity
  8
Deckel unten
100
AcDbCircle
 10
-145.5478585925964
 20
-367.8962639195968
 30
0.0
 40
2.0
100
AcDbArc
 50
180.0
 51
270.0
  0
ARC
  5
229F
330
371D
100
AcDbEntity
  8
Deckel unten
100
AcDbCircle
 10
-59.54785859259644
 20
-367.8962639195968
 30
0.0
 40
2.0
100
AcDbArc
 50
270.0
 51
0.0
  0
ARC
  5
22A0
330
371D
100
AcDbEntity
  8
Deckel unten
100
AcDbCircle
 10
-59.54785859259644
 20
-366.8962639195968
 30
0.0
 40
2.0
100
AcDbArc
 50
0.0
 51
90.0
  0
ARC
  5
22A1
330
371D
100
AcDbEntity
  8
Deckel unten
100
AcDbCircle
 10
-33.0
 20
-367.0
 30
0.0
 40
2.0
100
AcDbArc
 50
90.0
 51
180.0
  0
ARC
  5
22A2
330
371D
100
AcDbEntity
  8
Deckel unten
100
AcDbCircle
 10
-33.0
 20
-368.0
 30
0.0
 40
2.0
100
AcDbArc
 50
180.0
 51
270.0
  0
ARC
  5
22A3
330
371D
100
AcDbEntity
  8
Deckel unten
100
AcDbCircle
 10
53.0
 20
-368.0
 30
0.0
 40
2.0
100
AcDbArc
 50
270.0
 51
0.0
  0
ARC
  5
22A4
330
371D
100
AcDbEntity
  8
Deckel unten
100
AcDbCircle
 10
53.0
 20
-367.0
 30
0.0
 40
2.0
100
AcDbArc
 50
0.0
 51
90.0
  0
ARC
  5
22A5
330
371D
100
AcDbEntity
  8
Deckel unten
100
AcDbCircle
 10
79.50260020773167
 20
-367.8962639195967
 30
0.0
 40
2.0
100
AcDbArc
 50
180.0
 51
270.0
  0
ARC
  5
22A6
330
371D
100
AcDbEntity
  8
Deckel unten
100
AcDbCircle
 10
79.50260020773166
 20
-366.8962639195967
 30
0.0
 40
2.0
100
AcDbArc
 50
90.0
 51
180.0
  0
ARC
  5
22A7
330
371D
100
AcDbEntity
  8
Deckel unten
100
AcDbCircle
 10
165.5026002077317
 20
-366.8962639195967
 30
0.0
 40
2.0
100
AcDbArc
 50
0.0
 51
90.0
  0
ARC
  5
22A8
330
371D
100
AcDbEntity
  8
Deckel unten
100
AcDbCircle
 10
165.5026002077317
 20
-367.8962639195967
 30
0.0
 40
2.0
100
AcDbArc
 50
270.0
 51
0.0
  0
LINE
  5
22A9
330
371D
100
AcDbEntity
  8
Deckel unten
100
AcDbLine
 10
77.50260020773166
 20
-377.8962639195967
 30
0.0
 11
77.50260020773166
 21
-376.8962639195967
 31
0.0
  0
LINE
  5
22AA
330
371D
100
AcDbEntity
  8
Deckel unten
100
AcDbLine
 10
167.5026002077317
 20
-376.8962639195967
 30
0.0
 11
167.5026002077317
 21
-377.8962639195967
 31
0.0
  0
ARC
  5
22AB
330
371D
100
AcDbEntity
  8
Deckel unten
100
AcDbCircle
 10
-145.5478585925964
 20
-376.8962639195968
 30
0.0
 40
2.0
100
AcDbArc
 50
90.0
 51
180.0
  0
ARC
  5
22AC
330
371D
100
AcDbEntity
  8
Deckel unten
100
AcDbCircle
 10
-145.5478585925964
 20
-377.8962639195968
 30
0.0
 40
2.0
100
AcDbArc
 50
180.0
 51
270.0
  0
ARC
  5
22AD
330
371D
100
AcDbEntity
  8
Deckel unten
100
AcDbCircle
 10
-59.54785859259644
 20
-377.8962639195968
 30
0.0
 40
2.0
100
AcDbArc
 50
270.0
 51
0.0
  0
ARC
  5
22AE
330
371D
100
AcDbEntity
  8
Deckel unten
100
AcDbCircle
 10
-59.54785859259644
 20
-376.8962639195968
 30
0.0
 40
2.0
100
AcDbArc
 50
0.0
 51
90.0
  0
ARC
  5
22AF
330
371D
100
AcDbEntity
  8
Deckel unten
100
AcDbCircle
 10
-33.0
 20
-377.0
 30
0.0
 40
2.0
100
AcDbArc
 50
90.0
 51
180.0
  0
ARC
  5
22B0
330
371D
100
AcDbEntity
  8
Deckel unten
100
AcDbCircle
 10
-33.0
 20
-378.0
 30
0.0
 40
2.0
100
AcDbArc
 50
180.0
 51
270.0
  0
ARC
  5
22B1
330
371D
100
AcDbEntity
  8
Deckel unten
100
AcDbCircle
 10
53.0
 20
-378.0
 30
0.0
 40
2.0
100
AcDbArc
 50
270.0
 51
0.0
  0
ARC
  5
22B2
330
371D
100
AcDbEntity
  8
Deckel unten
100
AcDbCircle
 10
53.0
 20
-377.0
 30
0.0
 40
2.0
100
AcDbArc
 50
0.0
 51
90.0
  0
ARC
  5
22B3
330
371D
100
AcDbEntity
  8
Deckel unten
100
AcDbCircle
 10
79.50260020773167
 20
-377.8962639195967
 30
0.0
 40
2.0
100
AcDbArc
 50
180.0
 51
270.0
  0
ARC
  5
22B4
330
371D
100
AcDbEntity
  8
Deckel unten
100
AcDbCircle
 10
79.50260020773166
 20
-376.8962639195967
 30
0.0
 40
2.0
100
AcDbArc
 50
90.0
 51
180.0
  0
ARC
  5
22B5
330
371D
100
AcDbEntity
  8
Deckel unten
100
AcDbCircle
 10
165.5026002077317
 20
-376.8962639195967
 30
0.0
 40
2.0
100
AcDbArc
 50
0.0
 51
90.0
  0
ARC
  5
22B6
330
371D
100
AcDbEntity
  8
Deckel unten
100
AcDbCircle
 10
165.5026002077317
 20
-377.8962639195967
 30
0.0
 40
2.0
100
AcDbArc
 50
270.0
 51
0.0
  0
LINE
  5
22B7
330
371D
100
AcDbEntity
  8
Deckel unten
100
AcDbLine
 10
-145.5478585925964
 20
-374.8962639195968
 30
0.0
 11
-59.54785859259644
 21
-374.8962639195968
 31
0.0
  0
LINE
  5
22B8
330
371D
100
AcDbEntity
  8
Deckel unten
100
AcDbLine
 10
79.50260020773166
 20
-374.8962639195967
 30
0.0
 11
165.5026002077317
 21
-374.8962639195967
 31
0.0
  0
LINE
  5
22B9
330
371D
100
AcDbEntity
  8
Deckel unten
100
AcDbLine
 10
-145.5478585925964
 20
-379.8962639195968
 30
0.0
 11
-59.54785859259644
 21
-379.8962639195968
 31
0.0
  0
LINE
  5
22BA
330
371D
100
AcDbEntity
  8
Deckel unten
100
AcDbLine
 10
79.50260020773167
 20
-379.8962639195967
 30
0.0
 11
165.5026002077317
 21
-379.8962639195967
 31
0.0
  0
LINE
  5
22BB
330
371D
100
AcDbEntity
  8
Deckel unten
100
AcDbLine
 10
-33.0
 20
-375.0
 30
0.0
 11
53.0
 21
-375.0
 31
0.0
  0
LINE
  5
22BC
330
371D
100
AcDbEntity
  8
Deckel unten
100
AcDbLine
 10
-33.0
 20
-380.0
 30
0.0
 11
53.0
 21
-380.0
 31
0.0
  0
LINE
  5
22BD
330
371D
100
AcDbEntity
  8
Deckel unten
100
AcDbLine
 10
-147.5478585925964
 20
-377.8962639195968
 30
0.0
 11
-147.5478585925964
 21
-376.8962639195968
 31
0.0
  0
LINE
  5
22BE
330
371D
100
AcDbEntity
  8
Deckel unten
100
AcDbLine
 10
-57.54785859259644
 20
-376.8962639195968
 30
0.0
 11
-57.54785859259644
 21
-377.8962639195968
 31
0.0
  0
LINE
  5
22BF
330
371D
100
AcDbEntity
  8
Deckel unten
100
AcDbLine
 10
-35.0
 20
-378.0
 30
0.0
 11
-35.0
 21
-377.0
 31
0.0
  0
LINE
  5
22C0
330
371D
100
AcDbEntity
  8
Deckel unten
100
AcDbLine
 10
55.0
 20
-377.0
 30
0.0
 11
55.0
 21
-378.0
 31
0.0
  0
LINE
  5
22C1
330
371D
100
AcDbEntity
  8
Deckel unten
100
AcDbLine
 10
77.50260020773166
 20
-387.8962639195967
 30
0.0
 11
77.50260020773166
 21
-386.8962639195967
 31
0.0
  0
LINE
  5
22C2
330
371D
100
AcDbEntity
  8
Deckel unten
100
AcDbLine
 10
167.5026002077317
 20
-386.8962639195967
 30
0.0
 11
167.5026002077317
 21
-387.8962639195967
 31
0.0
  0
ARC
  5
22C3
330
371D
100
AcDbEntity
  8
Deckel unten
100
AcDbCircle
 10
-145.5478585925964
 20
-386.8962639195968
 30
0.0
 40
2.0
100
AcDbArc
 50
90.0
 51
180.0
  0
ARC
  5
22C4
330
371D
100
AcDbEntity
  8
Deckel unten
100
AcDbCircle
 10
-145.5478585925964
 20
-387.8962639195968
 30
0.0
 40
2.0
100
AcDbArc
 50
180.0
 51
270.0
  0
ARC
  5
22C5
330
371D
100
AcDbEntity
  8
Deckel unten
100
AcDbCircle
 10
-59.54785859259644
 20
-387.8962639195968
 30
0.0
 40
2.0
100
AcDbArc
 50
270.0
 51
0.0
  0
ARC
  5
22C6
330
371D
100
AcDbEntity
  8
Deckel unten
100
AcDbCircle
 10
-59.54785859259644
 20
-386.8962639195968
 30
0.0
 40
2.0
100
AcDbArc
 50
0.0
 51
90.0
  0
ARC
  5
22C7
330
371D
100
AcDbEntity
  8
Deckel unten
100
AcDbCircle
 10
-33.0
 20
-387.0
 30
0.0
 40
2.0
100
AcDbArc
 50
90.0
 51
180.0
  0
ARC
  5
22C8
330
371D
100
AcDbEntity
  8
Deckel unten
100
AcDbCircle
 10
-33.0
 20
-388.0
 30
0.0
 40
2.0
100
AcDbArc
 50
180.0
 51
270.0
  0
ARC
  5
22C9
330
371D
100
AcDbEntity
  8
Deckel unten
100
AcDbCircle
 10
53.0
 20
-388.0
 30
0.0
 40
2.0
100
AcDbArc
 50
270.0
 51
0.0
  0
ARC
  5
22CA
330
371D
100
AcDbEntity
  8
Deckel unten
100
AcDbCircle
 10
53.0
 20
-387.0
 30
0.0
 40
2.0
100
AcDbArc
 50
0.0
 51
90.0
  0
ARC
  5
22CB
330
371D
100
AcDbEntity
  8
Deckel unten
100
AcDbCircle
 10
79.50260020773167
 20
-387.8962639195967
 30
0.0
 40
2.0
100
AcDbArc
 50
180.0
 51
270.0
  0
ARC
  5
22CC
330
371D
100
AcDbEntity
  8
Deckel unten
100
AcDbCircle
 10
79.50260020773166
 20
-386.8962639195967
 30
0.0
 40
2.0
100
AcDbArc
 50
90.0
 51
180.0
  0
ARC
  5
22CD
330
371D
100
AcDbEntity
  8
Deckel unten
100
AcDbCircle
 10
165.5026002077317
 20
-386.8962639195967
 30
0.0
 40
2.0
100
AcDbArc
 50
0.0
 51
90.0
  0
ARC
  5
22CE
330
371D
100
AcDbEntity
  8
Deckel unten
100
AcDbCircle
 10
165.5026002077317
 20
-387.8962639195967
 30
0.0
 40
2.0
100
AcDbArc
 50
270.0
 51
0.0
  0
LINE
  5
22CF
330
371D
100
AcDbEntity
  8
Deckel unten
100
AcDbLine
 10
-145.5478585925964
 20
-384.8962639195968
 30
0.0
 11
-59.54785859259644
 21
-384.8962639195968
 31
0.0
  0
LINE
  5
22D0
330
371D
100
AcDbEntity
  8
Deckel unten
100
AcDbLine
 10
79.50260020773166
 20
-384.8962639195967
 30
0.0
 11
165.5026002077317
 21
-384.8962639195967
 31
0.0
  0
LINE
  5
22D1
330
371D
100
AcDbEntity
  8
Deckel unten
100
AcDbLine
 10
-145.5478585925964
 20
-389.8962639195968
 30
0.0
 11
-59.54785859259644
 21
-389.8962639195968
 31
0.0
  0
LINE
  5
22D2
330
371D
100
AcDbEntity
  8
Deckel unten
100
AcDbLine
 10
79.50260020773167
 20
-389.8962639195967
 30
0.0
 11
165.5026002077317
 21
-389.8962639195967
 31
0.0
  0
LINE
  5
22D3
330
371D
100
AcDbEntity
  8
Deckel unten
100
AcDbLine
 10
-33.0
 20
-385.0
 30
0.0
 11
53.0
 21
-385.0
 31
0.0
  0
LINE
  5
22D4
330
371D
100
AcDbEntity
  8
Deckel unten
100
AcDbLine
 10
-33.0
 20
-390.0
 30
0.0
 11
53.0
 21
-390.0
 31
0.0
  0
LINE
  5
22D5
330
371D
100
AcDbEntity
  8
Deckel unten
100
AcDbLine
 10
-147.5478585925964
 20
-387.8962639195968
 30
0.0
 11
-147.5478585925964
 21
-386.8962639195968
 31
0.0
  0
LINE
  5
22D6
330
371D
100
AcDbEntity
  8
Deckel unten
100
AcDbLine
 10
-57.54785859259644
 20
-386.8962639195968
 30
0.0
 11
-57.54785859259644
 21
-387.8962639195968
 31
0.0
  0
LINE
  5
22D7
330
371D
100
AcDbEntity
  8
Deckel unten
100
AcDbLine
 10
-35.0
 20
-388.0
 30
0.0
 11
-35.0
 21
-387.0
 31
0.0
  0
LINE
  5
22D8
330
371D
100
AcDbEntity
  8
Deckel unten
100
AcDbLine
 10
55.0
 20
-387.0
 30
0.0
 11
55.0
 21
-388.0
 31
0.0
  0
LINE
  5
22D9
330
371D
100
AcDbEntity
  8
Deckel unten
100
AcDbLine
 10
77.50260020773166
 20
-397.8962639195967
 30
0.0
 11
77.50260020773166
 21
-396.8962639195967
 31
0.0
  0
LINE
  5
22DA
330
371D
100
AcDbEntity
  8
Deckel unten
100
AcDbLine
 10
167.5026002077317
 20
-396.8962639195967
 30
0.0
 11
167.5026002077317
 21
-397.8962639195967
 31
0.0
  0
ARC
  5
22DB
330
371D
100
AcDbEntity
  8
Deckel unten
100
AcDbCircle
 10
-145.5478585925964
 20
-396.8962639195968
 30
0.0
 40
2.0
100
AcDbArc
 50
90.0
 51
180.0
  0
ARC
  5
22DC
330
371D
100
AcDbEntity
  8
Deckel unten
100
AcDbCircle
 10
-145.5478585925964
 20
-397.8962639195968
 30
0.0
 40
2.0
100
AcDbArc
 50
180.0
 51
270.0
  0
ARC
  5
22DD
330
371D
100
AcDbEntity
  8
Deckel unten
100
AcDbCircle
 10
-59.54785859259644
 20
-397.8962639195968
 30
0.0
 40
2.0
100
AcDbArc
 50
270.0
 51
0.0
  0
ARC
  5
22DE
330
371D
100
AcDbEntity
  8
Deckel unten
100
AcDbCircle
 10
-59.54785859259644
 20
-396.8962639195968
 30
0.0
 40
2.0
100
AcDbArc
 50
0.0
 51
90.0
  0
ARC
  5
22DF
330
371D
100
AcDbEntity
  8
Deckel unten
100
AcDbCircle
 10
-33.0
 20
-397.0
 30
0.0
 40
2.0
100
AcDbArc
 50
90.0
 51
180.0
  0
ARC
  5
22E0
330
371D
100
AcDbEntity
  8
Deckel unten
100
AcDbCircle
 10
-33.0
 20
-398.0
 30
0.0
 40
2.0
100
AcDbArc
 50
180.0
 51
270.0
  0
ARC
  5
22E1
330
371D
100
AcDbEntity
  8
Deckel unten
100
AcDbCircle
 10
53.0
 20
-398.0
 30
0.0
 40
2.0
100
AcDbArc
 50
270.0
 51
0.0
  0
ARC
  5
22E2
330
371D
100
AcDbEntity
  8
Deckel unten
100
AcDbCircle
 10
53.0
 20
-397.0
 30
0.0
 40
2.0
100
AcDbArc
 50
0.0
 51
90.0
  0
ARC
  5
22E3
330
371D
100
AcDbEntity
  8
Deckel unten
100
AcDbCircle
 10
79.50260020773167
 20
-397.8962639195967
 30
0.0
 40
2.0
100
AcDbArc
 50
180.0
 51
270.0
  0
ARC
  5
22E4
330
371D
100
AcDbEntity
  8
Deckel unten
100
AcDbCircle
 10
79.50260020773166
 20
-396.8962639195967
 30
0.0
 40
2.0
100
AcDbArc
 50
90.0
 51
180.0
  0
ARC
  5
22E5
330
371D
100
AcDbEntity
  8
Deckel unten
100
AcDbCircle
 10
165.5026002077317
 20
-396.8962639195967
 30
0.0
 40
2.0
100
AcDbArc
 50
0.0
 51
90.0
  0
ARC
  5
22E6
330
371D
100
AcDbEntity
  8
Deckel unten
100
AcDbCircle
 10
165.5026002077317
 20
-397.8962639195967
 30
0.0
 40
2.0
100
AcDbArc
 50
270.0
 51
0.0
  0
LINE
  5
22E7
330
371D
100
AcDbEntity
  8
Deckel unten
100
AcDbLine
 10
-145.5478585925964
 20
-394.8962639195968
 30
0.0
 11
-59.54785859259644
 21
-394.8962639195968
 31
0.0
  0
LINE
  5
22E8
330
371D
100
AcDbEntity
  8
Deckel unten
100
AcDbLine
 10
79.50260020773166
 20
-394.8962639195967
 30
0.0
 11
165.5026002077317
 21
-394.8962639195967
 31
0.0
  0
LINE
  5
22E9
330
371D
100
AcDbEntity
  8
Deckel unten
100
AcDbLine
 10
-145.5478585925964
 20
-399.8962639195968
 30
0.0
 11
-59.54785859259644
 21
-399.8962639195968
 31
0.0
  0
LINE
  5
22EA
330
371D
100
AcDbEntity
  8
Deckel unten
100
AcDbLine
 10
79.50260020773167
 20
-399.8962639195967
 30
0.0
 11
165.5026002077317
 21
-399.8962639195967
 31
0.0
  0
LINE
  5
22EB
330
371D
100
AcDbEntity
  8
Deckel unten
100
AcDbLine
 10
-33.0
 20
-395.0
 30
0.0
 11
53.0
 21
-395.0
 31
0.0
  0
LINE
  5
22EC
330
371D
100
AcDbEntity
  8
Deckel unten
100
AcDbLine
 10
-33.0
 20
-400.0
 30
0.0
 11
53.0
 21
-400.0
 31
0.0
  0
LINE
  5
22ED
330
371D
100
AcDbEntity
  8
Deckel unten
100
AcDbLine
 10
-147.5478585925964
 20
-397.8962639195968
 30
0.0
 11
-147.5478585925964
 21
-396.8962639195968
 31
0.0
  0
LINE
  5
22EE
330
371D
100
AcDbEntity
  8
Deckel unten
100
AcDbLine
 10
-57.54785859259644
 20
-396.8962639195968
 30
0.0
 11
-57.54785859259644
 21
-397.8962639195968
 31
0.0
  0
LINE
  5
22EF
330
371D
100
AcDbEntity
  8
Deckel unten
100
AcDbLine
 10
-35.0
 20
-398.0
 30
0.0
 11
-35.0
 21
-397.0
 31
0.0
  0
LINE
  5
22F0
330
371D
100
AcDbEntity
  8
Deckel unten
100
AcDbLine
 10
55.0
 20
-397.0
 30
0.0
 11
55.0
 21
-398.0
 31
0.0
  0
LINE
  5
22F1
330
371D
100
AcDbEntity
  8
Deckel unten
100
AcDbLine
 10
77.50260020773166
 20
-407.8962639195967
 30
0.0
 11
77.50260020773166
 21
-406.8962639195967
 31
0.0
  0
LINE
  5
22F2
330
371D
100
AcDbEntity
  8
Deckel unten
100
AcDbLine
 10
167.5026002077317
 20
-406.8962639195967
 30
0.0
 11
167.5026002077317
 21
-407.8962639195967
 31
0.0
  0
ARC
  5
22F3
330
371D
100
AcDbEntity
  8
Deckel unten
100
AcDbCircle
 10
-145.5478585925964
 20
-406.8962639195968
 30
0.0
 40
2.0
100
AcDbArc
 50
90.0
 51
180.0
  0
ARC
  5
22F4
330
371D
100
AcDbEntity
  8
Deckel unten
100
AcDbCircle
 10
-145.5478585925964
 20
-407.8962639195968
 30
0.0
 40
2.0
100
AcDbArc
 50
180.0
 51
270.0
  0
ARC
  5
22F5
330
371D
100
AcDbEntity
  8
Deckel unten
100
AcDbCircle
 10
-59.54785859259644
 20
-407.8962639195968
 30
0.0
 40
2.0
100
AcDbArc
 50
270.0
 51
0.0
  0
ARC
  5
22F6
330
371D
100
AcDbEntity
  8
Deckel unten
100
AcDbCircle
 10
-59.54785859259644
 20
-406.8962639195968
 30
0.0
 40
2.0
100
AcDbArc
 50
0.0
 51
90.0
  0
ARC
  5
22F7
330
371D
100
AcDbEntity
  8
Deckel unten
100
AcDbCircle
 10
-33.0
 20
-407.0
 30
0.0
 40
2.0
100
AcDbArc
 50
90.0
 51
180.0
  0
ARC
  5
22F8
330
371D
100
AcDbEntity
  8
Deckel unten
100
AcDbCircle
 10
-33.0
 20
-408.0
 30
0.0
 40
2.0
100
AcDbArc
 50
180.0
 51
270.0
  0
ARC
  5
22F9
330
371D
100
AcDbEntity
  8
Deckel unten
100
AcDbCircle
 10
53.0
 20
-408.0
 30
0.0
 40
2.0
100
AcDbArc
 50
270.0
 51
0.0
  0
ARC
  5
22FA
330
371D
100
AcDbEntity
  8
Deckel unten
100
AcDbCircle
 10
53.0
 20
-407.0
 30
0.0
 40
2.0
100
AcDbArc
 50
0.0
 51
90.0
  0
ARC
  5
22FB
330
371D
100
AcDbEntity
  8
Deckel unten
100
AcDbCircle
 10
79.50260020773167
 20
-407.8962639195967
 30
0.0
 40
2.0
100
AcDbArc
 50
180.0
 51
270.0
  0
ARC
  5
22FC
330
371D
100
AcDbEntity
  8
Deckel unten
100
AcDbCircle
 10
79.50260020773166
 20
-406.8962639195967
 30
0.0
 40
2.0
100
AcDbArc
 50
90.0
 51
180.0
  0
ARC
  5
22FD
330
371D
100
AcDbEntity
  8
Deckel unten
100
AcDbCircle
 10
165.5026002077317
 20
-406.8962639195967
 30
0.0
 40
2.0
100
AcDbArc
 50
0.0
 51
90.0
  0
ARC
  5
22FE
330
371D
100
AcDbEntity
  8
Deckel unten
100
AcDbCircle
 10
165.5026002077317
 20
-407.8962639195967
 30
0.0
 40
2.0
100
AcDbArc
 50
270.0
 51
0.0
  0
LINE
  5
22FF
330
371D
100
AcDbEntity
  8
Deckel unten
100
AcDbLine
 10
-145.5478585925964
 20
-404.8962639195968
 30
0.0
 11
-59.54785859259644
 21
-404.8962639195968
 31
0.0
  0
LINE
  5
2300
330
371D
100
AcDbEntity
  8
Deckel unten
100
AcDbLine
 10
79.50260020773166
 20
-404.8962639195967
 30
0.0
 11
165.5026002077317
 21
-404.8962639195967
 31
0.0
  0
LINE
  5
2301
330
371D
100
AcDbEntity
  8
Deckel unten
100
AcDbLine
 10
-145.5478585925964
 20
-409.8962639195968
 30
0.0
 11
-59.54785859259644
 21
-409.8962639195968
 31
0.0
  0
LINE
  5
2302
330
371D
100
AcDbEntity
  8
Deckel unten
100
AcDbLine
 10
79.50260020773167
 20
-409.8962639195967
 30
0.0
 11
165.5026002077317
 21
-409.8962639195967
 31
0.0
  0
LINE
  5
2303
330
371D
100
AcDbEntity
  8
Deckel unten
100
AcDbLine
 10
-33.0
 20
-405.0
 30
0.0
 11
53.0
 21
-405.0
 31
0.0
  0
LINE
  5
2304
330
371D
100
AcDbEntity
  8
Deckel unten
100
AcDbLine
 10
-33.0
 20
-410.0
 30
0.0
 11
53.0
 21
-410.0
 31
0.0
  0
LINE
  5
2305
330
371D
100
AcDbEntity
  8
Deckel unten
100
AcDbLine
 10
-147.5478585925964
 20
-407.8962639195968
 30
0.0
 11
-147.5478585925964
 21
-406.8962639195968
 31
0.0
  0
LINE
  5
2306
330
371D
100
AcDbEntity
  8
Deckel unten
100
AcDbLine
 10
-57.54785859259644
 20
-406.8962639195968
 30
0.0
 11
-57.54785859259644
 21
-407.8962639195968
 31
0.0
  0
LINE
  5
2307
330
371D
100
AcDbEntity
  8
Deckel unten
100
AcDbLine
 10
-35.0
 20
-408.0
 30
0.0
 11
-35.0
 21
-407.0
 31
0.0
  0
LINE
  5
2308
330
371D
100
AcDbEntity
  8
Deckel unten
100
AcDbLine
 10
55.0
 20
-407.0
 30
0.0
 11
55.0
 21
-408.0
 31
0.0
  0
LINE
  5
2309
330
371D
100
AcDbEntity
  8
Deckel unten
100
AcDbLine
 10
77.50260020773166
 20
-417.8962639195967
 30
0.0
 11
77.50260020773166
 21
-416.8962639195967
 31
0.0
  0
LINE
  5
230A
330
371D
100
AcDbEntity
  8
Deckel unten
100
AcDbLine
 10
167.5026002077317
 20
-416.8962639195967
 30
0.0
 11
167.5026002077317
 21
-417.8962639195967
 31
0.0
  0
ARC
  5
230B
330
371D
100
AcDbEntity
  8
Deckel unten
100
AcDbCircle
 10
-145.5478585925964
 20
-416.8962639195968
 30
0.0
 40
2.0
100
AcDbArc
 50
90.0
 51
180.0
  0
ARC
  5
230C
330
371D
100
AcDbEntity
  8
Deckel unten
100
AcDbCircle
 10
-145.5478585925964
 20
-417.8962639195968
 30
0.0
 40
2.0
100
AcDbArc
 50
180.0
 51
270.0
  0
ARC
  5
230D
330
371D
100
AcDbEntity
  8
Deckel unten
100
AcDbCircle
 10
-59.54785859259644
 20
-417.8962639195968
 30
0.0
 40
2.0
100
AcDbArc
 50
270.0
 51
0.0
  0
ARC
  5
230E
330
371D
100
AcDbEntity
  8
Deckel unten
100
AcDbCircle
 10
-59.54785859259644
 20
-416.8962639195968
 30
0.0
 40
2.0
100
AcDbArc
 50
0.0
 51
90.0
  0
ARC
  5
230F
330
371D
100
AcDbEntity
  8
Deckel unten
100
AcDbCircle
 10
-33.0
 20
-417.0
 30
0.0
 40
2.0
100
AcDbArc
 50
90.0
 51
180.0
  0
ARC
  5
2310
330
371D
100
AcDbEntity
  8
Deckel unten
100
AcDbCircle
 10
-33.0
 20
-418.0
 30
0.0
 40
2.0
100
AcDbArc
 50
180.0
 51
270.0
  0
ARC
  5
2311
330
371D
100
AcDbEntity
  8
Deckel unten
100
AcDbCircle
 10
53.0
 20
-418.0
 30
0.0
 40
2.0
100
AcDbArc
 50
270.0
 51
0.0
  0
ARC
  5
2312
330
371D
100
AcDbEntity
  8
Deckel unten
100
AcDbCircle
 10
53.0
 20
-417.0
 30
0.0
 40
2.0
100
AcDbArc
 50
0.0
 51
90.0
  0
ARC
  5
2313
330
371D
100
AcDbEntity
  8
Deckel unten
100
AcDbCircle
 10
79.50260020773167
 20
-417.8962639195967
 30
0.0
 40
2.0
100
AcDbArc
 50
180.0
 51
270.0
  0
ARC
  5
2314
330
371D
100
AcDbEntity
  8
Deckel unten
100
AcDbCircle
 10
79.50260020773166
 20
-416.8962639195967
 30
0.0
 40
2.0
100
AcDbArc
 50
90.0
 51
180.0
  0
ARC
  5
2315
330
371D
100
AcDbEntity
  8
Deckel unten
100
AcDbCircle
 10
165.5026002077317
 20
-416.8962639195967
 30
0.0
 40
2.0
100
AcDbArc
 50
0.0
 51
90.0
  0
ARC
  5
2316
330
371D
100
AcDbEntity
  8
Deckel unten
100
AcDbCircle
 10
165.5026002077317
 20
-417.8962639195967
 30
0.0
 40
2.0
100
AcDbArc
 50
270.0
 51
0.0
  0
LINE
  5
2317
330
371D
100
AcDbEntity
  8
Deckel unten
100
AcDbLine
 10
-145.5478585925964
 20
-414.8962639195968
 30
0.0
 11
-59.54785859259644
 21
-414.8962639195968
 31
0.0
  0
LINE
  5
2318
330
371D
100
AcDbEntity
  8
Deckel unten
100
AcDbLine
 10
79.50260020773166
 20
-414.8962639195967
 30
0.0
 11
165.5026002077317
 21
-414.8962639195967
 31
0.0
  0
LINE
  5
2319
330
371D
100
AcDbEntity
  8
Deckel unten
100
AcDbLine
 10
-145.5478585925964
 20
-419.8962639195968
 30
0.0
 11
-59.54785859259644
 21
-419.8962639195968
 31
0.0
  0
LINE
  5
231A
330
371D
100
AcDbEntity
  8
Deckel unten
100
AcDbLine
 10
79.50260020773167
 20
-419.8962639195967
 30
0.0
 11
165.5026002077317
 21
-419.8962639195967
 31
0.0
  0
LINE
  5
231B
330
371D
100
AcDbEntity
  8
Deckel unten
100
AcDbLine
 10
-33.0
 20
-415.0
 30
0.0
 11
53.0
 21
-415.0
 31
0.0
  0
LINE
  5
231C
330
371D
100
AcDbEntity
  8
Deckel unten
100
AcDbLine
 10
-33.0
 20
-420.0
 30
0.0
 11
53.0
 21
-420.0
 31
0.0
  0
LINE
  5
231D
330
371D
100
AcDbEntity
  8
Deckel unten
100
AcDbLine
 10
-147.5478585925964
 20
-417.8962639195968
 30
0.0
 11
-147.5478585925964
 21
-416.8962639195968
 31
0.0
  0
LINE
  5
231E
330
371D
100
AcDbEntity
  8
Deckel unten
100
AcDbLine
 10
-57.54785859259644
 20
-416.8962639195968
 30
0.0
 11
-57.54785859259644
 21
-417.8962639195968
 31
0.0
  0
LINE
  5
231F
330
371D
100
AcDbEntity
  8
Deckel unten
100
AcDbLine
 10
-35.0
 20
-418.0
 30
0.0
 11
-35.0
 21
-417.0
 31
0.0
  0
LINE
  5
2320
330
371D
100
AcDbEntity
  8
Deckel unten
100
AcDbLine
 10
55.0
 20
-417.0
 30
0.0
 11
55.0
 21
-418.0
 31
0.0
  0
LINE
  5
2321
330
371D
100
AcDbEntity
  8
Deckel unten
100
AcDbLine
 10
-145.5478585925964
 20
-364.8962639195968
 30
0.0
 11
-59.54785859259644
 21
-364.8962639195968
 31
0.0
  0
LINE
  5
2322
330
371D
100
AcDbEntity
  8
Deckel unten
100
AcDbLine
 10
79.50260020773166
 20
-364.8962639195967
 30
0.0
 11
165.5026002077317
 21
-364.8962639195967
 31
0.0
  0
LINE
  5
2323
330
371D
100
AcDbEntity
  8
Deckel unten
100
AcDbLine
 10
-145.5478585925964
 20
-369.8962639195968
 30
0.0
 11
-59.54785859259644
 21
-369.8962639195968
 31
0.0
  0
LINE
  5
2324
330
371D
100
AcDbEntity
  8
Deckel unten
100
AcDbLine
 10
79.50260020773167
 20
-369.8962639195967
 30
0.0
 11
165.5026002077317
 21
-369.8962639195967
 31
0.0
  0
ARC
  5
2327
330
371D
100
AcDbEntity
  8
Batteriehalter
100
AcDbCircle
 10
179.8582859702097
 20
215.0687238222806
 30
0.0
 40
5.0
100
AcDbArc
 50
0.0
 51
90.0
  0
ARC
  5
2330
330
371D
100
AcDbEntity
  8
Batteriehalter
100
AcDbCircle
 10
179.9004440005438
 20
129.9265455039742
 30
0.0
 40
5.0
100
AcDbArc
 50
270.0
 51
0.0
  0
CIRCLE
  5
2357
330
371D
100
AcDbEntity
  8
Deckel unten
100
AcDbCircle
 10
150.1810840359702
 20
-356.2160195599925
 30
0.0
 40
2.2
  0
LINE
  5
2575
330
371D
100
AcDbEntity
  8
Batteriehalter
100
AcDbLine
 10
192.4649588583135
 20
297.6075036340942
 30
0.0
 11
192.4649588583135
 21
318.8070280923108
 31
0.0
  0
LINE
  5
2576
330
371D
100
AcDbEntity
  8
Batteriehalter
100
AcDbLine
 10
-192.5854999420147
 20
297.6075036340942
 30
0.0
 11
-192.5854999420147
 21
318.8215001913762
 31
0.0
  0
LINE
  5
2633
330
371D
100
AcDbEntity
  8
Deckel oben
100
AcDbLine
 10
190.3922603153612
 20
317.8694317952281
 30
0.0
 11
190.3922603153612
 21
317.8694317952281
 31
0.0
  0
ARC
  5
2634
330
371D
100
AcDbEntity
  8
Deckel oben
100
AcDbCircle
 10
190.3922603153612
 20
319.8694317952281
 30
0.0
 40
2.0
100
AcDbArc
 50
270.0
 51
0.0
  0
LINE
  5
2635
330
371D
100
AcDbEntity
  8
Deckel oben
100
AcDbLine
 10
-190.658198484967
 20
317.9127285866645
 30
0.0
 11
-190.658198484967
 21
317.9127285866645
 31
0.0
  0
ARC
  5
2636
330
371D
100
AcDbEntity
  8
Deckel oben
100
AcDbCircle
 10
-190.658198484967
 20
319.9127285866645
 30
0.0
 40
2.0
100
AcDbArc
 50
180.0
 51
270.0
  0
LINE
  5
2638
330
371D
100
AcDbEntity
  8
Deckel unten
100
AcDbLine
 10
190.5445421218018
 20
-317.3811272210945
 30
0.0
 11
190.5445421218018
 21
-317.3811272210945
 31
0.0
  0
ARC
  5
2639
330
371D
100
AcDbEntity
  8
Deckel unten
100
AcDbCircle
 10
190.5445421218018
 20
-319.3811272210945
 30
0.0
 40
2.0
100
AcDbArc
 50
0.0
 51
90.0
  0
LINE
  5
263A
330
371D
100
AcDbEntity
  8
Deckel unten
100
AcDbLine
 10
-190.5059166785264
 20
-317.4244240125311
 30
0.0
 11
-190.5059166785264
 21
-317.4244240125311
 31
0.0
  0
ARC
  5
263B
330
371D
100
AcDbEntity
  8
Deckel unten
100
AcDbCircle
 10
-190.5059166785264
 20
-319.4244240125311
 30
0.0
 40
2.0
100
AcDbArc
 50
90.0
 51
180.0
  0
LINE
  5
263D
330
371D
100
AcDbEntity
  8
Batteriehalter
100
AcDbLine
 10
190.4649588583135
 20
25.60820933975304
 30
0.0
 11
190.4649588583135
 21
25.60820933975304
 31
0.0
  0
ARC
  5
263E
330
371D
100
AcDbEntity
  8
Batteriehalter
100
AcDbCircle
 10
190.4649588583135
 20
27.60820933975304
 30
0.0
 40
2.0
100
AcDbArc
 50
270.0
 51
0.0
  0
LINE
  5
263F
330
371D
100
AcDbEntity
  8
Batteriehalter
100
AcDbLine
 10
-190.5854999420147
 20
25.6515061311895
 30
0.0
 11
-190.5854999420147
 21
25.6515061311895
 31
0.0
  0
ARC
  5
2640
330
371D
100
AcDbEntity
  8
Batteriehalter
100
AcDbCircle
 10
-190.5854999420147
 20
27.6515061311895
 30
0.0
 40
2.0
100
AcDbArc
 50
180.0
 51
270.0
  0
CIRCLE
  5
264A
330
371D
100
AcDbEntity
  8
Deckel unten
100
AcDbCircle
 10
172.5112238949566
 20
-336.3804215154362
 30
0.0
 40
3.4
  0
CIRCLE
  5
264B
330
371D
100
AcDbEntity
  8
Deckel unten
100
AcDbCircle
 10
-172.539946370886
 20
-336.380421515436
 30
0.0
 40
3.4
  0
CIRCLE
  5
264C
330
371D
100
AcDbEntity
  8
Deckel unten
100
AcDbCircle
 10
-172.4698655694168
 20
-569.3804215154358
 30
0.0
 40
3.4
  0
CIRCLE
  5
264D
330
371D
100
AcDbEntity
  8
Deckel unten
100
AcDbCircle
 10
172.5445421218018
 20
-569.3577112620673
 30
0.0
 40
3.4
  0
LINE
  5
264F
330
371D
100
AcDbEntity
  8
Batteriehalter
100
AcDbLine
 10
180.4649588583135
 20
4.607503634094231
 30
0.0
 11
-180.5854999420147
 21
4.607503634094231
 31
0.0
  0
LINE
  5
2650
330
371D
100
AcDbEntity
  8
Deckel oben
100
AcDbLine
 10
-152.6564509496565
 20
656.8751697783545
 30
0.0
 11
152.3940078506717
 21
656.8622795009642
 31
0.0
  0
LINE
  5
2651
330
371D
100
AcDbEntity
  8
Deckel oben
100
AcDbLine
 10
180.3922603153612
 20
296.8687260895692
 30
0.0
 11
-180.658198484967
 21
296.8687260895692
 31
0.0
  0
LINE
  5
2652
330
371D
100
AcDbEntity
  8
Deckel unten
100
AcDbLine
 10
-180.5115688781703
 20
-272.2416424145711
 30
0.0
 11
180.5388899221579
 21
-272.2416424145711
 31
0.0
  0
LINE
  5
2653
330
371D
100
AcDbEntity
  8
Deckel unten
100
AcDbLine
 10
152.5462896571124
 20
-656.3739749268309
 30
0.0
 11
-152.504169143216
 21
-656.3868652042212
 31
0.0
  0
LINE
  5
265C
330
371D
100
AcDbEntity
  8
Rueckwand
100
AcDbLine
 10
192.4146443316896
 20
347.7365786179031
 30
0.0
 11
-192.8183782151634
 21
347.607440839913
 31
0.0
  0
LINE
  5
265F
330
371D
100
AcDbEntity
  8
Rueckwand
100
AcDbLine
 10
-192.4577501932664
 20
-317.3061373953064
 30
0.0
 11
192.7361907801294
 21
-317.1770130673786
 31
0.0
  0
LINE
  5
2671
330
371D
100
AcDbEntity
  8
Rueckwand
100
AcDbLine
 10
-80.00641443994564
 20
-304.2416424145711
 30
0.0
 11
-70.00875570910293
 21
-304.2416424145711
 31
0.0
  0
LINE
  5
2672
330
371D
100
AcDbEntity
  8
Rueckwand
100
AcDbLine
 10
-70.00875570910293
 20
-304.2416424145711
 30
0.0
 11
-70.00875570910293
 21
-294.2416424145711
 31
0.0
  0
LINE
  5
2673
330
371D
100
AcDbEntity
  8
Rueckwand
100
AcDbLine
 10
-70.00875570910293
 20
-294.2416424145711
 30
0.0
 11
-80.00641443994564
 21
-294.2416424145711
 31
0.0
  0
LINE
  5
2674
330
371D
100
AcDbEntity
  8
Rueckwand
100
AcDbLine
 10
-80.00641443994564
 20
-294.2416424145711
 30
0.0
 11
-80.00641443994564
 21
-304.2416424145711
 31
0.0
  0
LINE
  5
2675
330
371D
100
AcDbEntity
  8
Rueckwand
100
AcDbLine
 10
70.04403800030563
 20
-304.2416424145711
 30
0.0
 11
80.04169673114832
 21
-304.2416424145711
 31
0.0
  0
LINE
  5
2676
330
371D
100
AcDbEntity
  8
Rueckwand
100
AcDbLine
 10
80.04169673114832
 20
-304.2416424145711
 30
0.0
 11
80.04169673114832
 21
-294.2416424145711
 31
0.0
  0
LINE
  5
2677
330
371D
100
AcDbEntity
  8
Rueckwand
100
AcDbLine
 10
80.04169673114832
 20
-294.2416424145711
 30
0.0
 11
70.04403800030563
 21
-294.2416424145711
 31
0.0
  0
LINE
  5
2678
330
371D
100
AcDbEntity
  8
Rueckwand
100
AcDbLine
 10
70.04403800030563
 20
-294.2416424145711
 30
0.0
 11
70.04403800030563
 21
-304.2416424145711
 31
0.0
  0
LINE
  5
2679
330
371D
100
AcDbEntity
  8
Deckel unten
100
AcDbLine
 10
-80.00641443994564
 20
-304.2416424145711
 30
0.0
 11
-70.00875570910294
 21
-304.2416424145711
 31
0.0
  0
LINE
  5
267A
330
371D
100
AcDbEntity
  8
Deckel unten
100
AcDbLine
 10
-70.00875570910294
 20
-304.2416424145711
 30
0.0
 11
-70.00875570910294
 21
-294.2416424145711
 31
0.0
  0
LINE
  5
267B
330
371D
100
AcDbEntity
  8
Deckel unten
100
AcDbLine
 10
-70.00875570910294
 20
-294.2416424145711
 30
0.0
 11
-80.00641443994564
 21
-294.2416424145711
 31
0.0
  0
LINE
  5
267C
330
371D
100
AcDbEntity
  8
Deckel unten
100
AcDbLine
 10
-80.00641443994564
 20
-294.2416424145711
 30
0.0
 11
-80.00641443994564
 21
-304.2416424145711
 31
0.0
  0
LINE
  5
267D
330
371D
100
AcDbEntity
  8
Deckel unten
100
AcDbLine
 10
70.04403800030563
 20
-304.2416424145711
 30
0.0
 11
80.04169673114832
 21
-304.2416424145711
 31
0.0
  0
LINE
  5
267E
330
371D
100
AcDbEntity
  8
Deckel unten
100
AcDbLine
 10
80.04169673114832
 20
-304.2416424145711
 30
0.0
 11
80.04169673114832
 21
-294.2416424145711
 31
0.0
  0
LINE
  5
267F
330
371D
100
AcDbEntity
  8
Deckel unten
100
AcDbLine
 10
80.04169673114832
 20
-294.2416424145711
 30
0.0
 11
70.04403800030563
 21
-294.2416424145711
 31
0.0
  0
LINE
  5
2680
330
371D
100
AcDbEntity
  8
Deckel unten
100
AcDbLine
 10
70.04403800030563
 20
-294.2416424145711
 30
0.0
 11
70.04403800030563
 21
-304.2416424145711
 31
0.0
  0
LINE
  5
2692
330
371D
100
AcDbEntity
  8
Batthalter oben
100
AcDbLine
 10
-180.6788125317112
 20
28.60476241027311
 30
0.0
 11
-182.6788125317112
 21
30.0634675381701
 31
0.0
  0
LINE
  5
2693
330
371D
100
AcDbEntity
  8
Batthalter oben
100
AcDbLine
 10
-182.6788125317112
 20
30.0634675381701
 30
0.0
 11
-180.6788125317112
 21
28.60476241027311
 31
0.0
  0
LINE
  5
2694
330
371D
100
AcDbEntity
  8
Batthalter oben
100
AcDbLine
 10
-180.6788125317112
 20
28.60476241027311
 30
0.0
 11
-182.6788125317112
 21
27.03305318327438
 31
0.0
  0
LINE
  5
269D
330
371D
100
AcDbEntity
  8
Batthalter oben
100
AcDbLine
 10
133.0540835257625
 20
27.104762410273
 30
0.0
 11
131.0540835257625
 21
28.604762410273
 31
0.0
  0
LINE
  5
269E
330
371D
100
AcDbEntity
  8
Batthalter oben
100
AcDbLine
 10
131.0540835257625
 20
28.604762410273
 30
0.0
 11
133.0540835257625
 21
30.104762410273
 31
0.0
  0
LINE
  5
26AE
330
371D
100
AcDbEntity
  8
Batthalter oben
100
AcDbLine
 10
-182.6788125317109
 20
321.2876933371637
 30
0.0
 11
-180.6788125317109
 21
319.7876933371637
 31
0.0
  0
LINE
  5
26AF
330
371D
100
AcDbEntity
  8
Batthalter oben
100
AcDbLine
 10
-180.6788125317109
 20
319.7876933371637
 30
0.0
 11
-182.6788125317109
 21
318.2876933371637
 31
0.0
  0
LINE
  5
26B0
330
371D
100
AcDbEntity
  8
Batthalter oben
100
AcDbLine
 10
133.0540835257625
 20
321.2876933371636
 30
0.0
 11
131.0540835257625
 21
319.7876933371636
 31
0.0
  0
LINE
  5
26B1
330
371D
100
AcDbEntity
  8
Batthalter oben
100
AcDbLine
 10
131.0540835257625
 20
319.7876933371636
 30
0.0
 11
133.0540835257625
 21
318.2876933371636
 31
0.0
  0
LINE
  5
26B6
330
371D
100
AcDbEntity
  8
Batthalter oben
100
AcDbLine
 10
123.0540835257625
 20
331.7876933371636
 30
0.0
 11
-172.6788125317109
 21
331.7876933371637
 31
0.0
  0
LINE
  5
26B7
330
371D
100
AcDbEntity
  8
Batthalter oben
100
AcDbLine
 10
-172.6788125317112
 20
14.60476241027311
 30
0.0
 11
123.0540835257625
 21
14.604762410273
 31
0.0
  0
CIRCLE
  5
26BC
330
371D
100
AcDbEntity
  8
Batteriehalter
100
AcDbCircle
 10
-58.3167052096329
 20
347.3142641418434
 30
0.0
 40
2.7
  0
CIRCLE
  5
26BD
330
371D
100
AcDbEntity
  8
Batteriehalter
100
AcDbCircle
 10
58.17989098741644
 20
347.3142641418434
 30
0.0
 40
2.7
  0
CIRCLE
  5
26C0
330
371D
100
AcDbEntity
  8
Rueckwand
100
AcDbCircle
 10
312.7630918483442
 20
246.9087720210828
 30
0.0
 40
3.6
  0
CIRCLE
  5
26C1
330
371D
100
AcDbEntity
  8
Rueckwand
100
AcDbCircle
 10
375.8952212821413
 20
246.9087720210828
 30
0.0
 40
3.6
  0
CIRCLE
  5
26C2
330
371D
100
AcDbEntity
  8
Rueckwand
100
AcDbCircle
 10
375.8952212821413
 20
94.7495547255007
 30
0.0
 40
3.6
  0
CIRCLE
  5
26C3
330
371D
100
AcDbEntity
  8
Rueckwand
100
AcDbCircle
 10
312.7630918483442
 20
94.7495547255007
 30
0.0
 40
3.6
  0
CIRCLE
  5
2790
330
371D
100
AcDbEntity
  8
Haube
100
AcDbCircle
 10
59.06619008645594
 20
-116.1116683891485
 30
0.0
 40
2.7
  0
CIRCLE
  5
2791
330
371D
100
AcDbEntity
  8
Haube
100
AcDbCircle
 10
-58.44918397687563
 20
-116.1130241066992
 30
0.0
 40
2.7
  0
CIRCLE
  5
2792
330
371D
100
AcDbEntity
  8
Haube
100
AcDbCircle
 10
-58.4485690449817
 20
-169.4161265836087
 30
0.0
 40
2.7
  0
CIRCLE
  5
2793
330
371D
100
AcDbEntity
  8
Haube
100
AcDbCircle
 10
59.0668050183499
 20
-169.4147708660579
 30
0.0
 40
2.7
  0
CIRCLE
  5
2794
330
371D
100
AcDbEntity
  8
Haube
100
AcDbCircle
 10
-39.94645780516952
 20
-127.8167793846194
 30
0.0
 40
2.0
  0
CIRCLE
  5
2795
330
371D
100
AcDbEntity
  8
Haube
100
AcDbCircle
 10
-39.94221359351756
 20
-142.8129590457335
 30
0.0
 40
2.0
  0
CIRCLE
  5
2796
330
371D
100
AcDbEntity
  8
Haube
100
AcDbCircle
 10
-39.94262910488292
 20
-157.8060799477336
 30
0.0
 40
2.0
  0
LINE
  5
2797
330
371D
100
AcDbEntity
  8
Haube
100
AcDbLine
 10
40.43156713003214
 20
-133.3292114068416
 30
0.0
 11
40.43178632376459
 21
-152.3292114055771
 31
0.0
  0
LINE
  5
2798
330
371D
100
AcDbEntity
  8
Haube
100
AcDbLine
 10
-17.56846747564493
 20
-130.3298805247509
 30
0.0
 11
37.43153252069506
 21
-130.329246016578
 31
0.0
  0
LINE
  5
2799
330
371D
100
AcDbEntity
  8
Haube
100
AcDbLine
 10
-20.56821367217616
 20
-152.3299151328235
 30
0.0
 11
-20.56843286590861
 21
-133.3299151340881
 31
0.0
  0
LINE
  5
279A
330
371D
100
AcDbEntity
  8
Haube
100
AcDbLine
 10
37.43182093350094
 20
-155.3292460149142
 30
0.0
 11
-17.56817906283907
 21
-155.3298805230872
 31
0.0
  0
ARC
  5
279B
330
371D
100
AcDbEntity
  8
Haube
100
AcDbCircle
 10
37.43156713023178
 20
-133.3292460163783
 30
0.0
 40
3.0
100
AcDbArc
 50
0.0006609934096024
 51
90.00066099346138
  0
ARC
  5
279C
330
371D
100
AcDbEntity
  8
Haube
100
AcDbCircle
 10
-17.56843286610824
 20
-133.3298805245514
 30
0.0
 40
3.0
100
AcDbArc
 50
90.00066099346138
 51
180.0006609934096
  0
ARC
  5
279D
330
371D
100
AcDbEntity
  8
Haube
100
AcDbCircle
 10
-17.56821367237576
 20
-152.3298805232868
 30
0.0
 40
3.0
100
AcDbArc
 50
180.0006609934096
 51
270.0006609934613
  0
ARC
  5
279E
330
371D
100
AcDbEntity
  8
Haube
100
AcDbCircle
 10
37.43178632396423
 20
-152.3292460151138
 30
0.0
 40
3.0
100
AcDbArc
 50
270.0006609934613
 51
0.0006609934096024
  0
CIRCLE
  5
279F
330
371D
100
AcDbEntity
  8
Haube
100
AcDbCircle
 10
0.1228737806313492
 20
-181.8819766613012
 30
0.0
 40
8.2
  0
ARC
  5
27A0
330
371D
100
AcDbEntity
  8
Haube
100
AcDbCircle
 10
59.06619008645594
 20
-116.1116683891485
 30
0.0
 40
0.0
100
AcDbArc
 50
0.0
 51
0.0
  0
ARC
  5
27A1
330
371D
100
AcDbEntity
  8
Haube
100
AcDbCircle
 10
-58.44918397687563
 20
-116.1130241066992
 30
0.0
 40
0.0
100
AcDbArc
 50
0.0
 51
0.0
  0
ARC
  5
27A2
330
371D
100
AcDbEntity
  8
Haube
100
AcDbCircle
 10
-58.4485690449817
 20
-169.4161265836087
 30
0.0
 40
0.0
100
AcDbArc
 50
0.0
 51
0.0
  0
ARC
  5
27A3
330
371D
100
AcDbEntity
  8
Haube
100
AcDbCircle
 10
59.0668050183499
 20
-169.4147708660579
 30
0.0
 40
0.0
100
AcDbArc
 50
0.0
 51
0.0
  0
LINE
  5
27AB
330
371D
100
AcDbEntity
  8
Rueckwand
100
AcDbLine
 10
-493.4847394603219
 20
347.5917421580456
 30
0.0
 11
-194.69157301252
 21
347.6070886586592
 31
0.0
  0
LINE
  5
27AC
330
371D
100
AcDbEntity
  8
Rueckwand
100
AcDbLine
 10
-493.3028918864767
 20
-317.2886270983091
 30
0.0
 11
-194.2741888797664
 21
-317.3064007632615
 31
0.0
  0
LINE
  5
27AD
330
371D
100
AcDbEntity
  8
Rueckwand
100
AcDbLine
 10
194.6020078202041
 20
-317.1766309665949
 30
0.0
 11
493.380388329456
 21
-317.157396544359
 31
0.0
  0
LINE
  5
27AE
330
371D
100
AcDbEntity
  8
Rueckwand
100
AcDbLine
 10
194.2947188249259
 20
347.7368594348213
 30
0.0
 11
493.2534655511261
 21
347.7228994658986
 31
0.0
  0
LINE
  5
27B0
330
371D
100
AcDbEntity
  8
Boardhalter
100
AcDbLine
 10
-160.5059166785264
 20
-564.3804215154361
 30
0.0
 11
-98.0050556070985
 21
-564.380421515436
 31
0.0
  0
CIRCLE
  5
27B6
330
371D
100
AcDbEntity
  8
WR Halter
100
AcDbCircle
 10
-85.00856353171741
 20
-490.8664722597948
 30
0.0
 40
2.7
  0
CIRCLE
  5
27B7
330
371D
100
AcDbEntity
  8
WR Halter
100
AcDbCircle
 10
84.99143646828276
 20
-490.8664722597949
 30
0.0
 40
2.7
  0
CIRCLE
  5
27B8
330
371D
100
AcDbEntity
  8
WR Halter
100
AcDbCircle
 10
-0.0085635317173285
 20
-480.8664722597948
 30
0.0
 40
2.7
  0
CIRCLE
  5
27B9
330
371D
100
AcDbEntity
  8
Deckel unten
100
AcDbCircle
 10
-85.00856353171741
 20
-490.8664722597948
 30
0.0
 40
2.7
  0
CIRCLE
  5
27BA
330
371D
100
AcDbEntity
  8
Deckel unten
100
AcDbCircle
 10
-0.0085635317173285
 20
-480.8664722597948
 30
0.0
 40
2.7
  0
CIRCLE
  5
27BB
330
371D
100
AcDbEntity
  8
Deckel unten
100
AcDbCircle
 10
84.99143646828276
 20
-490.8664722597949
 30
0.0
 40
2.7
  0
CIRCLE
  5
27BE
330
371D
100
AcDbEntity
  8
Deckel unten
100
AcDbCircle
 10
-0.0201371038076843
 20
-453.7416381584006
 30
0.0
 40
2.7
  0
CIRCLE
  5
27BF
330
371D
100
AcDbEntity
  8
Deckel unten
100
AcDbCircle
 10
-85.02357411960708
 20
-443.770891801076
 30
0.0
 40
2.7
  0
CIRCLE
  5
27C0
330
371D
100
AcDbEntity
  8
Deckel unten
100
AcDbCircle
 10
84.97641684133725
 20
-443.7123857001417
 30
0.0
 40
2.7
  0
LINE
  5
2875
330
371D
100
AcDbEntity
  8
Deckel oben
100
AcDbLine
 10
-192.6581984849669
 20
611.8687260895692
 30
0.0
 11
-192.6581984849669
 21
616.875169816528
 31
0.0
  0
LINE
  5
2878
330
371D
100
AcDbEntity
  8
Deckel oben
100
AcDbLine
 10
192.3922603153612
 20
611.8687260895692
 30
0.0
 11
192.3922603153612
 21
616.8622795391377
 31
0.0
  0
LINE
  5
2879
330
371D
100
AcDbEntity
  8
Deckel oben
100
AcDbLine
 10
-212.658198484967
 20
601.8687260895692
 30
0.0
 11
-212.658198484967
 21
331.8687260895692
 31
0.0
  0
LINE
  5
287A
330
371D
100
AcDbEntity
  8
Deckel oben
100
AcDbLine
 10
212.3922603153612
 20
331.8687260895692
 30
0.0
 11
212.3922603153612
 21
601.8687260895693
 31
0.0
  0
LINE
  5
287B
330
371D
100
AcDbEntity
  8
Deckel oben
100
AcDbLine
 10
192.3922603153612
 20
319.8694317952281
 30
0.0
 11
192.3922603153612
 21
321.8687260895692
 31
0.0
  0
LINE
  5
287C
330
371D
100
AcDbEntity
  8
Deckel oben
100
AcDbLine
 10
-192.658198484967
 20
319.9127285866645
 30
0.0
 11
-192.658198484967
 21
321.8687260895692
 31
0.0
  0
LINE
  5
287D
330
371D
100
AcDbEntity
  8
Deckel unten
100
AcDbLine
 10
-192.5059166785264
 20
-616.3868652423947
 30
0.0
 11
-192.5059166785264
 21
-611.3804215154358
 31
0.0
  0
LINE
  5
287E
330
371D
100
AcDbEntity
  8
Deckel unten
100
AcDbLine
 10
-212.5059166785264
 20
-601.3804215154358
 30
0.0
 11
-212.5059166785264
 21
-331.3804215154361
 31
0.0
  0
LINE
  5
287F
330
371D
100
AcDbEntity
  8
Deckel unten
100
AcDbLine
 10
-192.5059166785264
 20
-321.380421515436
 30
0.0
 11
-192.5059166785264
 21
-319.4244240125311
 31
0.0
  0
LINE
  5
2880
330
371D
100
AcDbEntity
  8
Deckel unten
100
AcDbLine
 10
192.5445421218018
 20
-321.380421515436
 30
0.0
 11
192.5445421218018
 21
-319.3811272210945
 31
0.0
  0
LINE
  5
2881
330
371D
100
AcDbEntity
  8
Deckel unten
100
AcDbLine
 10
212.5445421218017
 20
-331.380421515436
 30
0.0
 11
212.5445421218018
 21
-601.3804215154361
 31
0.0
  0
LINE
  5
2882
330
371D
100
AcDbEntity
  8
Deckel unten
100
AcDbLine
 10
192.5445421218018
 20
-616.3739749650044
 30
0.0
 11
192.5445421218018
 21
-611.380421515436
 31
0.0
  0
LINE
  5
293A
330
371D
100
AcDbEntity
  8
Batthalter oben
100
AcDbLine
 10
-154.8123645029743
 20
43.43184021945581
 30
0.0
 11
-155.8123645029743
 21
43.43184021945581
 31
0.0
  0
LINE
  5
293B
330
371D
100
AcDbEntity
  8
Batthalter oben
100
AcDbLine
 10
-155.8123645029743
 20
43.43184021945581
 30
0.0
 11
-155.8123645029743
 21
45.43184021945581
 31
0.0
  0
LINE
  5
293C
330
371D
100
AcDbEntity
  8
Batthalter oben
100
AcDbLine
 10
105.1876354970259
 20
43.43184021945581
 30
0.0
 11
106.1876354970259
 21
43.43184021945581
 31
0.0
  0
LINE
  5
293D
330
371D
100
AcDbEntity
  8
Batthalter oben
100
AcDbLine
 10
106.1876354970259
 20
43.43184021945581
 30
0.0
 11
106.1876354970259
 21
45.43184021945581
 31
0.0
  0
LINE
  5
2940
330
371D
100
AcDbEntity
  8
Batthalter oben
100
AcDbLine
 10
-182.6788125317109
 20
321.2876933371637
 30
0.0
 11
-182.6788125317109
 21
321.7876933371637
 31
0.0
  0
LINE
  5
2941
330
371D
100
AcDbEntity
  8
Batthalter oben
100
AcDbLine
 10
133.0540835257625
 20
321.2876933371636
 30
0.0
 11
133.0540835257625
 21
321.7876933371636
 31
0.0
  0
LINE
  5
2944
330
371D
100
AcDbEntity
  8
Batthalter oben
100
AcDbLine
 10
-182.6788125317112
 20
24.60476241027311
 30
0.0
 11
-182.6788125317112
 21
27.03305318327438
 31
0.0
  0
LINE
  5
2945
330
371D
100
AcDbEntity
  8
Batthalter oben
100
AcDbLine
 10
-182.6788125317112
 20
30.0634675381701
 30
0.0
 11
-182.6788125317109
 21
318.2876933371637
 31
0.0
  0
LINE
  5
2946
330
371D
100
AcDbEntity
  8
Batthalter oben
100
AcDbLine
 10
133.0540835257625
 20
318.2876933371636
 30
0.0
 11
133.0540835257625
 21
30.104762410273
 31
0.0
  0
LINE
  5
2947
330
371D
100
AcDbEntity
  8
Batthalter oben
100
AcDbLine
 10
133.0540835257625
 20
24.604762410273
 30
0.0
 11
133.0540835257625
 21
27.104762410273
 31
0.0
  0
CIRCLE
  5
29FD
330
371D
100
AcDbEntity
  8
Dekoblech
100
AcDbCircle
 10
39.94455302263874
 20
187.2003577806712
 30
0.0
 40
2.0
  0
CIRCLE
  5
29FE
330
371D
100
AcDbEntity
  8
Dekoblech
100
AcDbCircle
 10
39.94514150232671
 20
172.2072368844624
 30
0.0
 40
2.0
  0
ARC
  5
29FF
330
371D
100
AcDbEntity
  8
Dekoblech
100
AcDbCircle
 10
-36.91761277534316
 20
196.1773943872674
 30
0.0
 40
3.0
100
AcDbArc
 50
90.0
 51
180.0
  0
ARC
  5
2A00
330
371D
100
AcDbEntity
  8
Dekoblech
100
AcDbCircle
 10
17.08238722465684
 20
196.1773943872675
 30
0.0
 40
3.0
100
AcDbArc
 50
0.0
 51
90.0
  0
ARC
  5
2A01
330
371D
100
AcDbEntity
  8
Dekoblech
100
AcDbCircle
 10
17.08238722465684
 20
178.1773943872676
 30
0.0
 40
3.0
100
AcDbArc
 50
270.0
 51
0.0
  0
ARC
  5
2A02
330
371D
100
AcDbEntity
  8
Dekoblech
100
AcDbCircle
 10
-36.9176127753431
 20
178.1773943872678
 30
0.0
 40
3.0
100
AcDbArc
 50
180.0
 51
270.0
  0
CIRCLE
  5
2A03
330
371D
100
AcDbEntity
  8
Dekoblech
100
AcDbCircle
 10
-0.1200836286442808
 20
148.1308779563327
 30
0.0
 40
8.2
  0
LINE
  5
2A04
330
371D
100
AcDbEntity
  8
Dekoblech
100
AcDbLine
 10
-65.23713435778178
 20
129.9294561652149
 30
0.0
 11
67.55523556977444
 21
129.9294561652149
 31
0.0
  0
LINE
  5
2A05
330
371D
100
AcDbEntity
  8
Dekoblech
100
AcDbLine
 10
67.55523556977444
 20
225.3758372053022
 30
0.0
 11
-65.23713435778178
 21
225.3758372053022
 31
0.0
  0
ARC
  5
2A06
330
371D
100
AcDbEntity
  8
Dekoblech
100
AcDbCircle
 10
-65.23713435778178
 20
205.3758372053021
 30
0.0
 40
20.0
100
AcDbArc
 50
90.0
 51
180.0
  0
ARC
  5
2A07
330
371D
100
AcDbEntity
  8
Dekoblech
100
AcDbCircle
 10
67.55523556977444
 20
205.3758372053022
 30
0.0
 40
20.0
100
AcDbArc
 50
0.0
 51
90.0
  0
LINE
  5
2A08
330
371D
100
AcDbEntity
  8
Dekoblech
100
AcDbLine
 10
-85.23713435778178
 20
149.9294561652149
 30
0.0
 11
-85.23713435778178
 21
205.3758372053021
 31
0.0
  0
ARC
  5
2A09
330
371D
100
AcDbEntity
  8
Dekoblech
100
AcDbCircle
 10
67.55523556977444
 20
149.9294561652148
 30
0.0
 40
20.0
100
AcDbArc
 50
270.0
 51
0.0
  0
LINE
  5
2A0A
330
371D
100
AcDbEntity
  8
Dekoblech
100
AcDbLine
 10
87.55523556977444
 20
149.9294561652148
 30
0.0
 11
87.55523556977444
 21
205.3758372053022
 31
0.0
  0
ARC
  5
2A0B
330
371D
100
AcDbEntity
  8
Dekoblech
100
AcDbCircle
 10
-65.23713435778178
 20
149.9294561652149
 30
0.0
 40
20.0
100
AcDbArc
 50
180.0
 51
270.0
  0
LINE
  5
2A0C
330
371D
100
AcDbEntity
  8
Dekoblech
100
AcDbLine
 10
-39.91761277534316
 20
178.1773943872678
 30
0.0
 11
-39.91761277534316
 21
196.1773943872674
 31
0.0
  0
LINE
  5
2A0D
330
371D
100
AcDbEntity
  8
Dekoblech
100
AcDbLine
 10
-36.91761277534316
 20
199.1773943872674
 30
0.0
 11
17.08238722465684
 21
199.1773943872675
 31
0.0
  0
LINE
  5
2A0E
330
371D
100
AcDbEntity
  8
Dekoblech
100
AcDbLine
 10
20.08238722465684
 20
196.1773943872675
 30
0.0
 11
20.08238722465684
 21
178.1773943872676
 31
0.0
  0
LINE
  5
2A0F
330
371D
100
AcDbEntity
  8
Dekoblech
100
AcDbLine
 10
17.08238722465684
 20
175.1773943872676
 30
0.0
 11
-36.9176127753431
 21
175.1773943872676
 31
0.0
  0
CIRCLE
  5
2A10
330
371D
100
AcDbEntity
  8
Dekoblech
100
AcDbCircle
 10
39.94862423068032
 20
202.1965374897507
 30
0.0
 40
2.0
  0
CIRCLE
  5
2AD1
330
371D
100
AcDbEntity
  8
Boardhalter
100
AcDbCircle
 10
-142.9742232522631
 20
-554.4628757881857
 30
0.0
 40
2.2
  0
CIRCLE
  5
2AD2
330
371D
100
AcDbEntity
  8
Boardhalter
100
AcDbCircle
 10
75.06312789966856
 20
-554.4628757881857
 30
0.0
 40
2.2
  0
CIRCLE
  5
2AD3
330
371D
100
AcDbEntity
  8
Deckel unten
100
AcDbCircle
 10
75.06312789966856
 20
-554.4628757881857
 30
0.0
 40
2.2
  0
CIRCLE
  5
2AD4
330
371D
100
AcDbEntity
  8
Deckel unten
100
AcDbCircle
 10
-142.9742232522631
 20
-554.4628757881857
 30
0.0
 40
2.2
  0
LINE
  5
2AD5
330
371D
100
AcDbEntity
  8
Boardhalter
100
AcDbLine
 10
-165.5059166785264
 20
-348.3453300609353
 30
0.0
 11
-165.5059166785264
 21
-543.5804215154361
 31
0.0
  0
LINE
  5
2AD6
330
371D
100
AcDbEntity
  8
Boardhalter
100
AcDbLine
 10
-160.5059166785264
 20
-343.3453300609353
 30
0.0
 11
92.54454212180175
 21
-343.3453300609353
 31
0.0
  0
LINE
  5
2AD8
330
371D
100
AcDbEntity
  8
Boardhalter
100
AcDbLine
 10
97.54454212180175
 20
-348.3453300609353
 30
0.0
 11
97.54454212180173
 21
-449.5676950620085
 31
0.0
  0
LINE
  5
2AD9
330
371D
100
AcDbEntity
  8
Boardhalter
100
AcDbLine
 10
97.54454212180175
 20
-494.5804215154361
 30
0.0
 11
97.54454212180175
 21
-543.5804215154361
 31
0.0
  0
LINE
  5
2ADC
330
371D
100
AcDbEntity
  8
Boardhalter
100
AcDbLine
 10
38.02354235370984
 20
-354.3453300609353
 30
0.0
 11
32.36751552621703
 21
-354.3453300609353
 31
0.0
  0
LINE
  5
2ADD
330
371D
100
AcDbEntity
  8
Boardhalter
100
AcDbLine
 10
32.36751552621703
 20
-354.3453300609353
 30
0.0
 11
32.36751552621703
 21
-351.3453300609353
 31
0.0
  0
LINE
  5
2ADE
330
371D
100
AcDbEntity
  8
Boardhalter
100
AcDbLine
 10
32.36751552621703
 20
-351.3453300609353
 30
0.0
 11
38.02354235370984
 21
-351.3453300609353
 31
0.0
  0
LINE
  5
2ADF
330
371D
100
AcDbEntity
  8
Boardhalter
100
AcDbLine
 10
38.02354235370984
 20
-351.3453300609353
 30
0.0
 11
38.02354235370984
 21
-354.3453300609353
 31
0.0
  0
LINE
  5
2AE0
330
371D
100
AcDbEntity
  8
Boardhalter
100
AcDbLine
 10
-30.61158418268465
 20
-354.3453300609353
 30
0.0
 11
-36.26838316401056
 21
-354.3453300609353
 31
0.0
  0
LINE
  5
2AE1
330
371D
100
AcDbEntity
  8
Boardhalter
100
AcDbLine
 10
-36.26838316401056
 20
-354.3453300609353
 30
0.0
 11
-36.26838316401056
 21
-351.3453300609353
 31
0.0
  0
LINE
  5
2AE2
330
371D
100
AcDbEntity
  8
Boardhalter
100
AcDbLine
 10
-36.26838316401056
 20
-351.3453300609353
 30
0.0
 11
-30.61158418268465
 21
-351.3453300609353
 31
0.0
  0
LINE
  5
2AE3
330
371D
100
AcDbEntity
  8
Boardhalter
100
AcDbLine
 10
-30.61158418268465
 20
-351.3453300609353
 30
0.0
 11
-30.61158418268465
 21
-354.3453300609353
 31
0.0
  0
LINE
  5
2AE4
330
371D
100
AcDbEntity
  8
Boardhalter
100
AcDbLine
 10
-99.45392158568235
 20
-351.3453300609353
 30
0.0
 11
-105.0520368756923
 21
-351.3453300609353
 31
0.0
  0
LINE
  5
2AE5
330
371D
100
AcDbEntity
  8
Boardhalter
100
AcDbLine
 10
-105.0520368756923
 20
-351.3453300609353
 30
0.0
 11
-105.0520368756923
 21
-354.3453300609353
 31
0.0
  0
LINE
  5
2AE6
330
371D
100
AcDbEntity
  8
Boardhalter
100
AcDbLine
 10
-105.0520368756923
 20
-354.3453300609353
 30
0.0
 11
-99.45392158568235
 21
-354.3453300609353
 31
0.0
  0
LINE
  5
2AE7
330
371D
100
AcDbEntity
  8
Boardhalter
100
AcDbLine
 10
-99.45392158568235
 20
-354.3453300609353
 30
0.0
 11
-99.45392158568235
 21
-351.3453300609353
 31
0.0
  0
LINE
  5
2B9E
330
371D
100
AcDbEntity
  8
Boardhalter
100
AcDbLine
 10
-157.5059166785264
 20
-382.002706068031
 30
0.0
 11
-154.5059166785264
 21
-382.002706068031
 31
0.0
  0
LINE
  5
2B9F
330
371D
100
AcDbEntity
  8
Boardhalter
100
AcDbLine
 10
-154.5059166785264
 20
-382.002706068031
 30
0.0
 11
-154.5059166785264
 21
-387.5163214673445
 31
0.0
  0
LINE
  5
2BA0
330
371D
100
AcDbEntity
  8
Boardhalter
100
AcDbLine
 10
-154.5059166785264
 20
-387.5163214673445
 30
0.0
 11
-157.5059166785264
 21
-387.5163214673445
 31
0.0
  0
LINE
  5
2BA1
330
371D
100
AcDbEntity
  8
Boardhalter
100
AcDbLine
 10
-157.5059166785264
 20
-387.5163214673445
 30
0.0
 11
-157.5059166785264
 21
-382.002706068031
 31
0.0
  0
CIRCLE
  5
2C57
330
371D
100
AcDbEntity
  8
Batteriehalter
100
AcDbCircle
 10
-21.30560720537393
 20
309.9242054281837
 30
0.0
 40
6.2
  0
CIRCLE
  5
2C58
330
371D
100
AcDbEntity
  8
Batteriehalter
100
AcDbCircle
 10
2.71146561951837
 20
309.9242054281837
 30
0.0
 40
6.2
  0
LINE
  5
2C6E
330
371D
100
AcDbEntity
  8
Batthalter oben
100
AcDbLine
 10
-155.8123645029742
 20
302.0318402194556
 30
0.0
 11
106.1876354970257
 21
302.0318402194556
 31
0.0
  0
LINE
  5
2C74
330
371D
100
AcDbEntity
  8
Rueckwand
100
AcDbLine
 10
-512.9551178809394
 20
302.5872462956794
 30
0.0
 11
-512.9551178809394
 21
332.5872462956794
 31
0.0
  0
LINE
  5
2C75
330
371D
100
AcDbEntity
  8
Rueckwand
100
AcDbLine
 10
512.739383599588
 20
302.7273035102241
 30
0.0
 11
512.739383599588
 21
332.7273035102241
 31
0.0
  0
LINE
  5
2C76
330
371D
100
AcDbEntity
  8
Haube
100
AcDbLine
 10
-244.5903772717578
 20
315.1022655818761
 30
0.0
 11
-244.5903772717578
 21
345.1022655818761
 31
0.0
  0
LINE
  5
2C77
330
371D
100
AcDbEntity
  8
Haube
100
AcDbLine
 10
244.4963350339234
 20
315.1022655818762
 30
0.0
 11
244.4963350339234
 21
345.1022655818762
 31
0.0
  0
LINE
  5
2DEC
330
371D
100
AcDbEntity
  8
Haube
100
AcDbLine
 10
-244.5903772717578
 20
315.1022655818761
 30
0.0
 11
-244.5903772717578
 21
253.911705626656
 31
0.0
  0
LINE
  5
2DED
330
371D
100
AcDbEntity
  8
Haube
100
AcDbLine
 10
-244.5902121689231
 20
243.9067404399106
 30
0.0
 11
-244.5799195686354
 21
-220.0662267925859
 31
0.0
  0
LINE
  5
2DEE
330
371D
100
AcDbEntity
  8
Haube
100
AcDbLine
 10
-244.5796639750607
 20
-230.0849409853686
 30
0.0
 11
-244.5903772717578
 21
-314.8045233842329
 31
0.0
  0
LINE
  5
2DEF
330
371D
100
AcDbEntity
  8
Haube
100
AcDbLine
 10
244.4963350339234
 20
-314.8045233842328
 30
0.0
 11
244.4963350339234
 21
-230.0872945211678
 31
0.0
  0
LINE
  5
2DF0
330
371D
100
AcDbEntity
  8
Haube
100
AcDbLine
 10
244.5603298234333
 20
-220.1762098628413
 30
0.0
 11
244.5603298234333
 21
243.8720807807966
 31
0.0
  0
LINE
  5
2DF1
330
371D
100
AcDbEntity
  8
Haube
100
AcDbLine
 10
244.4963350339234
 20
253.7777174249981
 30
0.0
 11
244.4963350339234
 21
315.1022655818762
 31
0.0
  0
CIRCLE
  5
2EA4
330
371D
100
AcDbEntity
  8
Deckel unten
100
AcDbCircle
 10
132.5396769491918
 20
-340.7382468509435
 30
0.0
 40
8.2
  0
LINE
  5
2F63
330
371D
100
AcDbEntity
  8
Anlasern
100
AcDbLine
 10
-218.0155045343862
 20
-318.3996559208671
 30
0.0
 11
-218.0155045343862
 21
-333.4044592443333
 31
0.0
  0
LINE
  5
2F67
330
371D
100
AcDbEntity
  8
Anlasern
100
AcDbLine
 10
-218.0676992362266
 20
348.6080015274268
 30
0.0
 11
-218.0676992362266
 21
363.6551074789567
 31
0.0
  0
LINE
  5
2F69
330
371D
100
AcDbEntity
  8
Anlasern
100
AcDbLine
 10
218.1335502089922
 20
363.7055353165634
 30
0.0
 11
218.1335502089922
 21
348.6853567933042
 31
0.0
  0
LINE
  5
2F6D
330
371D
100
AcDbEntity
  8
Anlasern
100
AcDbLine
 10
218.1335502089922
 20
-333.3514858996777
 30
0.0
 11
218.1335502089922
 21
-318.3130627888366
 31
0.0
  0
LINE
  5
2F7A
330
371D
100
AcDbEntity
  8
Anlasern
100
AcDbLine
 10
-207.0676992362266
 20
333.560895575897
 30
0.0
 11
-207.0676992362266
 21
363.6551074789567
 31
0.0
  0
LINE
  5
2F7B
330
371D
100
AcDbEntity
  8
Anlasern
100
AcDbLine
 10
-207.0155045343862
 20
-303.3948525974008
 30
0.0
 11
-207.0155045343862
 21
-333.4044592443333
 31
0.0
  0
LINE
  5
2F7C
330
371D
100
AcDbEntity
  8
Anlasern
100
AcDbLine
 10
-196.0676992362266
 20
333.560895575897
 30
0.0
 11
-196.0676992362266
 21
363.6551074789567
 31
0.0
  0
LINE
  5
2F7D
330
371D
100
AcDbEntity
  8
Anlasern
100
AcDbLine
 10
-196.0155045343862
 20
-303.3948525974008
 30
0.0
 11
-196.0155045343862
 21
-333.4044592443333
 31
0.0
  0
LINE
  5
2F7E
330
371D
100
AcDbEntity
  8
Anlasern
100
AcDbLine
 10
-185.0676992362266
 20
333.560895575897
 30
0.0
 11
-185.0676992362266
 21
363.6551074789567
 31
0.0
  0
LINE
  5
2F7F
330
371D
100
AcDbEntity
  8
Anlasern
100
AcDbLine
 10
-185.0155045343862
 20
-303.3948525974008
 30
0.0
 11
-185.0155045343862
 21
-333.4044592443333
 31
0.0
  0
LINE
  5
2F80
330
371D
100
AcDbEntity
  8
Anlasern
100
AcDbLine
 10
-174.0676992362266
 20
333.560895575897
 30
0.0
 11
-174.0676992362266
 21
363.6551074789567
 31
0.0
  0
LINE
  5
2F81
330
371D
100
AcDbEntity
  8
Anlasern
100
AcDbLine
 10
-174.0155045343862
 20
-303.3948525974008
 30
0.0
 11
-174.0155045343862
 21
-333.4044592443333
 31
0.0
  0
LINE
  5
2F82
330
371D
100
AcDbEntity
  8
Anlasern
100
AcDbLine
 10
-163.0676992362266
 20
333.560895575897
 30
0.0
 11
-163.0676992362266
 21
363.6551074789567
 31
0.0
  0
LINE
  5
2F83
330
371D
100
AcDbEntity
  8
Anlasern
100
AcDbLine
 10
-163.0155045343862
 20
-303.3948525974008
 30
0.0
 11
-163.0155045343862
 21
-333.4044592443333
 31
0.0
  0
LINE
  5
2F84
330
371D
100
AcDbEntity
  8
Anlasern
100
AcDbLine
 10
207.1335502089922
 20
363.7055353165634
 30
0.0
 11
207.1335502089922
 21
333.665178270045
 31
0.0
  0
LINE
  5
2F85
330
371D
100
AcDbEntity
  8
Anlasern
100
AcDbLine
 10
207.1335502089922
 20
-333.3514858996777
 30
0.0
 11
207.1335502089922
 21
-303.2746396779956
 31
0.0
  0
LINE
  5
2F86
330
371D
100
AcDbEntity
  8
Anlasern
100
AcDbLine
 10
196.1335502089922
 20
363.7055353165634
 30
0.0
 11
196.1335502089922
 21
333.665178270045
 31
0.0
  0
LINE
  5
2F87
330
371D
100
AcDbEntity
  8
Anlasern
100
AcDbLine
 10
196.1335502089922
 20
-333.3514858996777
 30
0.0
 11
196.1335502089922
 21
-303.2746396779956
 31
0.0
  0
LINE
  5
2F88
330
371D
100
AcDbEntity
  8
Anlasern
100
AcDbLine
 10
185.1335502089922
 20
363.7055353165634
 30
0.0
 11
185.1335502089922
 21
333.665178270045
 31
0.0
  0
LINE
  5
2F89
330
371D
100
AcDbEntity
  8
Anlasern
100
AcDbLine
 10
185.1335502089922
 20
-333.3514858996777
 30
0.0
 11
185.1335502089922
 21
-303.2746396779956
 31
0.0
  0
LINE
  5
2F8A
330
371D
100
AcDbEntity
  8
Anlasern
100
AcDbLine
 10
174.1335502089922
 20
363.7055353165634
 30
0.0
 11
174.1335502089922
 21
333.665178270045
 31
0.0
  0
LINE
  5
2F8B
330
371D
100
AcDbEntity
  8
Anlasern
100
AcDbLine
 10
174.1335502089922
 20
-333.3514858996777
 30
0.0
 11
174.1335502089922
 21
-303.2746396779956
 31
0.0
  0
LINE
  5
2F8C
330
371D
100
AcDbEntity
  8
Anlasern
100
AcDbLine
 10
163.1335502089922
 20
363.7055353165634
 30
0.0
 11
163.1335502089922
 21
333.665178270045
 31
0.0
  0
LINE
  5
2F8D
330
371D
100
AcDbEntity
  8
Anlasern
100
AcDbLine
 10
163.1335502089922
 20
-333.3514858996777
 30
0.0
 11
163.1335502089922
 21
-303.2746396779956
 31
0.0
  0
LINE
  5
2F8E
330
371D
100
AcDbEntity
  8
Haube
100
AcDbLine
 10
-222.9403772717577
 20
365.1022655818759
 30
0.0
 11
222.8382605506888
 21
365.1022655818762
 31
0.0
  0
LINE
  5
2F90
330
371D
100
AcDbEntity
  8
Haube
100
AcDbLine
 10
-224.5903772717578
 20
-334.8045233842329
 30
0.0
 11
224.4963350339234
 21
-334.8045233842328
 31
0.0
  0
ARC
  5
2F91
330
371D
100
AcDbEntity
  8
Haube
100
AcDbCircle
 10
-242.5799195691276
 20
-220.0661824253447
 30
0.0
 40
2.0
100
AcDbArc
 50
180.0012710278271
 51
270.2714864634578
  0
ARC
  5
2F92
330
371D
100
AcDbEntity
  8
Haube
100
AcDbCircle
 10
-242.5796639910519
 20
-230.0851938973001
 30
0.0
 40
2.0
100
AcDbArc
 50
90.08365684347949
 51
179.9927546068521
  0
ARC
  5
2F93
330
371D
100
AcDbEntity
  8
Haube
100
AcDbCircle
 10
-242.5902121694152
 20
243.9067848071519
 30
0.0
 40
2.0
100
AcDbArc
 50
90.09794302730694
 51
180.0012710278271
  0
ARC
  5
2F94
330
371D
100
AcDbEntity
  8
Haube
100
AcDbCircle
 10
-242.5903772717578
 20
253.911705626656
 30
0.0
 40
2.0
100
AcDbArc
 50
180.0
 51
270.2701661321724
  0
ARC
  5
2F95
330
371D
100
AcDbEntity
  8
Haube
100
AcDbCircle
 10
242.5603298234333
 20
243.8720807807966
 30
0.0
 40
2.0
100
AcDbArc
 50
0.0
 51
90.63441474771253
  0
ARC
  5
2F96
330
371D
100
AcDbEntity
  8
Haube
100
AcDbCircle
 10
242.4963350339234
 20
253.7777174249981
 30
0.0
 40
2.0
100
AcDbArc
 50
270.1160953102604
 51
0.0
  0
ARC
  5
2F97
330
371D
100
AcDbEntity
  8
Haube
100
AcDbCircle
 10
242.4963350339234
 20
-230.0872945211678
 30
0.0
 40
2.0
100
AcDbArc
 50
0.0
 51
89.79776180840027
  0
ARC
  5
2F98
330
371D
100
AcDbEntity
  8
Haube
100
AcDbCircle
 10
242.5603298234333
 20
-220.1762098628413
 30
0.0
 40
2.0
100
AcDbArc
 50
269.221524442888
 51
0.0
  0
ARC
  5
2F99
330
371D
100
AcDbEntity
  8
Haube
100
AcDbCircle
 10
-236.5192472825442
 20
253.9403329684479
 30
0.0
 40
2.0
100
AcDbArc
 50
270.2701661321724
 51
0.2701661321730718
  0
ARC
  5
2F9A
330
371D
100
AcDbEntity
  8
Haube
100
AcDbCircle
 10
236.2608755869982
 20
253.7650828366222
 30
0.0
 40
2.0
100
AcDbArc
 50
180.1096247914443
 51
270.1160953102604
  0
ARC
  5
2F9B
330
371D
100
AcDbEntity
  8
Haube
100
AcDbCircle
 10
236.177715691013
 20
-220.0894841928573
 30
0.0
 40
2.0
100
AcDbArc
 50
179.2106230071616
 51
269.221524442888
  0
ARC
  5
2F9C
330
371D
100
AcDbEntity
  8
Haube
100
AcDbCircle
 10
-236.2867538047698
 20
-220.0363630892902
 30
0.0
 40
2.0
100
AcDbArc
 50
270.2714864634578
 51
0.3930611361832024
  0
LINE
  5
3051
330
371D
100
AcDbEntity
  8
Anlasern
100
AcDbLine
 10
-152.0676992362266
 20
348.6080015274268
 30
0.0
 11
-152.0676992362266
 21
363.6551074789567
 31
0.0
  0
LINE
  5
3052
330
371D
100
AcDbEntity
  8
Anlasern
100
AcDbLine
 10
152.1335502089922
 20
363.7055353165634
 30
0.0
 11
152.1335502089922
 21
348.6853567933042
 31
0.0
  0
LINE
  5
3053
330
371D
100
AcDbEntity
  8
Anlasern
100
AcDbLine
 10
152.1335502089922
 20
-333.3514858996777
 30
0.0
 11
152.1335502089922
 21
-318.3130627888366
 31
0.0
  0
LINE
  5
3054
330
371D
100
AcDbEntity
  8
Anlasern
100
AcDbLine
 10
-152.0155045343862
 20
-318.3996559208671
 30
0.0
 11
-152.0155045343862
 21
-333.4044592443333
 31
0.0
  0
LINE
  5
3107
330
371D
100
AcDbEntity
  8
Batteriehalter
100
AcDbLine
 10
-167.5917450219183
 20
320.8215001913762
 30
0.0
 11
-167.5917450219183
 21
347.3965619654019
 31
0.0
  0
LINE
  5
3108
330
371D
100
AcDbEntity
  8
Batteriehalter
100
AcDbLine
 10
172.4641208314382
 20
320.8070280923107
 30
0.0
 11
172.4641208314381
 21
347.3827976841303
 31
0.0
  0
LINE
  5
31BB
330
371D
100
AcDbEntity
  8
WR Halter
100
AcDbLine
 10
-79.94667500464968
 20
-445.3493141977924
 30
0.0
 11
-69.94901627380696
 21
-445.3493141977924
 31
0.0
  0
LINE
  5
31BC
330
371D
100
AcDbEntity
  8
WR Halter
100
AcDbLine
 10
-69.94901627380696
 20
-445.3493141977924
 30
0.0
 11
-69.94901627380696
 21
-435.3493141977924
 31
0.0
  0
LINE
  5
31BD
330
371D
100
AcDbEntity
  8
WR Halter
100
AcDbLine
 10
-69.94901627380696
 20
-435.3493141977924
 30
0.0
 11
-79.94667500464968
 21
-435.3493141977924
 31
0.0
  0
LINE
  5
31BE
330
371D
100
AcDbEntity
  8
WR Halter
100
AcDbLine
 10
-79.94667500464968
 20
-435.3493141977924
 30
0.0
 11
-79.94667500464968
 21
-445.3493141977924
 31
0.0
  0
LINE
  5
31BF
330
371D
100
AcDbEntity
  8
WR Halter
100
AcDbLine
 10
70.1037774356016
 20
-445.3493141977924
 30
0.0
 11
80.10143616644429
 21
-445.3493141977924
 31
0.0
  0
LINE
  5
31C0
330
371D
100
AcDbEntity
  8
WR Halter
100
AcDbLine
 10
80.10143616644429
 20
-445.3493141977924
 30
0.0
 11
80.10143616644429
 21
-435.3493141977924
 31
0.0
  0
LINE
  5
31C1
330
371D
100
AcDbEntity
  8
WR Halter
100
AcDbLine
 10
80.10143616644429
 20
-435.3493141977924
 30
0.0
 11
70.1037774356016
 21
-435.3493141977924
 31
0.0
  0
LINE
  5
31C2
330
371D
100
AcDbEntity
  8
WR Halter
100
AcDbLine
 10
70.1037774356016
 20
-435.3493141977924
 30
0.0
 11
70.1037774356016
 21
-445.3493141977924
 31
0.0
  0
CIRCLE
  5
33DC
330
371D
100
AcDbEntity
  8
Batthalter oben
100
AcDbCircle
 10
-12.6788125317109
 20
311.0318402194556
 30
0.0
 40
6.2
  0
CIRCLE
  5
33DE
330
371D
100
AcDbEntity
  8
Batthalter oben
100
AcDbCircle
 10
12.3211874682891
 20
311.0318402194556
 30
0.0
 40
6.2
  0
LINE
  5
35F9
330
371D
100
AcDbEntity
  8
Batteriehalter
100
AcDbLine
 10
21.75556157785897
 20
304.0496441014561
 30
0.0
 11
21.75556157785897
 21
312.2772341578884
 31
0.0
  0
LINE
  5
35FA
330
371D
100
AcDbEntity
  8
Batteriehalter
100
AcDbLine
 10
51.92490832236923
 20
312.2772341578884
 30
0.0
 11
51.92490832236923
 21
304.0496441014561
 31
0.0
  0
LINE
  5
35FE
330
371D
100
AcDbEntity
  8
Boardhalter
100
AcDbLine
 10
-155.5059166785264
 20
-539.093284525481
 30
0.0
 11
-147.4667795856822
 21
-539.093284525481
 31
0.0
  0
LINE
  5
35FF
330
371D
100
AcDbEntity
  8
Boardhalter
100
AcDbLine
 10
-145.4667795856822
 20
-537.093284525481
 30
0.0
 11
-145.4667795856822
 21
-511.0392127513291
 31
0.0
  0
LINE
  5
3600
330
371D
100
AcDbEntity
  8
Boardhalter
100
AcDbLine
 10
-147.4667795856822
 20
-509.039212751329
 30
0.0
 11
-155.5059166785264
 21
-509.039212751329
 31
0.0
  0
LINE
  5
3601
330
371D
100
AcDbEntity
  8
Boardhalter
100
AcDbLine
 10
-157.5059166785264
 20
-511.039212751329
 30
0.0
 11
-157.5059166785264
 21
-537.093284525481
 31
0.0
  0
ARC
  5
3602
330
371D
100
AcDbEntity
  8
Boardhalter
100
AcDbCircle
 10
-155.5059166785264
 20
-511.039212751329
 30
0.0
 40
2.0
100
AcDbArc
 50
90.0
 51
180.0
  0
ARC
  5
3603
330
371D
100
AcDbEntity
  8
Boardhalter
100
AcDbCircle
 10
-147.4667795856822
 20
-511.0392127513291
 30
0.0
 40
2.0
100
AcDbArc
 50
0.0
 51
90.0
  0
ARC
  5
3604
330
371D
100
AcDbEntity
  8
Boardhalter
100
AcDbCircle
 10
-147.4667795856822
 20
-537.093284525481
 30
0.0
 40
2.0
100
AcDbArc
 50
270.0
 51
0.0
  0
ARC
  5
3605
330
371D
100
AcDbEntity
  8
Boardhalter
100
AcDbCircle
 10
-155.5059166785264
 20
-537.093284525481
 30
0.0
 40
2.0
100
AcDbArc
 50
180.0
 51
270.0
  0
LINE
  5
3607
330
371D
100
AcDbEntity
  8
Boardhalter
100
AcDbLine
 10
83.88851529430895
 20
-492.396569196467
 30
0.0
 11
89.54454212180175
 21
-492.396569196467
 31
0.0
  0
LINE
  5
3608
330
371D
100
AcDbEntity
  8
Boardhalter
100
AcDbLine
 10
89.54454212180175
 20
-492.396569196467
 30
0.0
 11
89.54454212180175
 21
-495.396569196467
 31
0.0
  0
LINE
  5
3609
330
371D
100
AcDbEntity
  8
Boardhalter
100
AcDbLine
 10
89.54454212180175
 20
-495.396569196467
 30
0.0
 11
83.88851529430895
 21
-495.396569196467
 31
0.0
  0
LINE
  5
360A
330
371D
100
AcDbEntity
  8
Boardhalter
100
AcDbLine
 10
83.88851529430895
 20
-495.396569196467
 30
0.0
 11
83.88851529430895
 21
-492.396569196467
 31
0.0
  0
LINE
  5
360B
330
371D
100
AcDbEntity
  8
Boardhalter
100
AcDbLine
 10
113.8885152943089
 20
-1016.396569196467
 30
0.0
 11
119.5445421218018
 21
-1016.396569196467
 31
0.0
  0
LINE
  5
360C
330
371D
100
AcDbEntity
  8
Boardhalter
100
AcDbLine
 10
119.5445421218018
 20
-1016.396569196467
 30
0.0
 11
119.5445421218018
 21
-1019.396569196467
 31
0.0
  0
LINE
  5
360D
330
371D
100
AcDbEntity
  8
Boardhalter
100
AcDbLine
 10
119.5445421218018
 20
-1019.396569196467
 30
0.0
 11
113.8885152943089
 21
-1019.396569196467
 31
0.0
  0
LINE
  5
360E
330
371D
100
AcDbEntity
  8
Boardhalter
100
AcDbLine
 10
113.8885152943089
 20
-1019.396569196467
 30
0.0
 11
113.8885152943089
 21
-1016.396569196467
 31
0.0
  0
LINE
  5
360F
330
371D
100
AcDbEntity
  8
Boardhalter
100
AcDbLine
 10
83.88851529430895
 20
-512.396569196467
 30
0.0
 11
89.54454212180175
 21
-512.396569196467
 31
0.0
  0
LINE
  5
3610
330
371D
100
AcDbEntity
  8
Boardhalter
100
AcDbLine
 10
89.54454212180175
 20
-512.396569196467
 30
0.0
 11
89.54454212180175
 21
-515.396569196467
 31
0.0
  0
LINE
  5
3611
330
371D
100
AcDbEntity
  8
Boardhalter
100
AcDbLine
 10
89.54454212180175
 20
-515.396569196467
 30
0.0
 11
83.88851529430895
 21
-515.396569196467
 31
0.0
  0
LINE
  5
3612
330
371D
100
AcDbEntity
  8
Boardhalter
100
AcDbLine
 10
83.88851529430895
 20
-515.396569196467
 30
0.0
 11
83.88851529430895
 21
-512.396569196467
 31
0.0
  0
LINE
  5
3613
330
371D
100
AcDbEntity
  8
Batthalter oben
100
AcDbLine
 10
33.15379755477232
 20
305.0353110732364
 30
0.0
 11
59.07475858758409
 21
305.0353110732364
 31
0.0
  0
LINE
  5
3614
330
371D
100
AcDbEntity
  8
Batthalter oben
100
AcDbLine
 10
61.07475858758409
 20
307.0353110732363
 30
0.0
 11
61.07475858758409
 21
315.0036954863611
 31
0.0
  0
LINE
  5
3615
330
371D
100
AcDbEntity
  8
Batthalter oben
100
AcDbLine
 10
59.07475858758409
 20
317.0036954863611
 30
0.0
 11
33.15379755477232
 21
317.0036954863611
 31
0.0
  0
LINE
  5
3616
330
371D
100
AcDbEntity
  8
Batthalter oben
100
AcDbLine
 10
31.15379755477233
 20
315.003695486361
 30
0.0
 11
31.15379755477233
 21
307.0353110732364
 31
0.0
  0
ARC
  5
3617
330
371D
100
AcDbEntity
  8
Batthalter oben
100
AcDbCircle
 10
33.15379755477232
 20
315.003695486361
 30
0.0
 40
2.0
100
AcDbArc
 50
90.0
 51
180.0
  0
ARC
  5
3618
330
371D
100
AcDbEntity
  8
Batthalter oben
100
AcDbCircle
 10
59.07475858758409
 20
315.0036954863611
 30
0.0
 40
2.0
100
AcDbArc
 50
0.0
 51
90.0
  0
ARC
  5
3619
330
371D
100
AcDbEntity
  8
Batthalter oben
100
AcDbCircle
 10
59.07475858758409
 20
307.0353110732363
 30
0.0
 40
2.0
100
AcDbArc
 50
270.0
 51
0.0
  0
ARC
  5
361A
330
371D
100
AcDbEntity
  8
Batthalter oben
100
AcDbCircle
 10
33.15379755477232
 20
307.0353110732364
 30
0.0
 40
2.0
100
AcDbArc
 50
180.0
 51
270.0
  0
LINE
  5
361C
330
371D
100
AcDbEntity
  8
Batteriehalter
100
AcDbLine
 10
172.4641208314382
 20
320.8215001913762
 30
0.0
 11
172.4641208314382
 21
320.8070280923107
 31
0.0
  0
LINE
  5
361F
330
371D
100
AcDbEntity
  8
Batteriehalter
100
AcDbLine
 10
-149.7138533563068
 20
320.8215001913762
 30
0.0
 11
-141.6436657109333
 21
320.8215001913762
 31
0.0
  0
LINE
  5
3620
330
371D
100
AcDbEntity
  8
Batteriehalter
100
AcDbLine
 10
-139.6436657109333
 20
322.8215001913762
 30
0.0
 11
-139.6436657109333
 21
348.9193844446142
 31
0.0
  0
LINE
  5
3621
330
371D
100
AcDbEntity
  8
Batteriehalter
100
AcDbLine
 10
-141.6436657109333
 20
350.9193844446142
 30
0.0
 11
-149.7138533563068
 21
350.9193844446142
 31
0.0
  0
LINE
  5
3622
330
371D
100
AcDbEntity
  8
Batteriehalter
100
AcDbLine
 10
-151.7138533563068
 20
348.9193844446142
 30
0.0
 11
-151.7138533563068
 21
322.8215001913762
 31
0.0
  0
ARC
  5
3623
330
371D
100
AcDbEntity
  8
Batteriehalter
100
AcDbCircle
 10
-149.7138533563068
 20
348.9193844446142
 30
0.0
 40
2.0
100
AcDbArc
 50
90.0
 51
180.0
  0
ARC
  5
3624
330
371D
100
AcDbEntity
  8
Batteriehalter
100
AcDbCircle
 10
-141.6436657109333
 20
348.9193844446142
 30
0.0
 40
2.0
100
AcDbArc
 50
0.0
 51
90.0
  0
ARC
  5
3625
330
371D
100
AcDbEntity
  8
Batteriehalter
100
AcDbCircle
 10
-141.6436657109333
 20
322.8215001913762
 30
0.0
 40
2.0
100
AcDbArc
 50
270.0
 51
0.0
  0
ARC
  5
3626
330
371D
100
AcDbEntity
  8
Batteriehalter
100
AcDbCircle
 10
-149.7138533563068
 20
322.8215001913762
 30
0.0
 40
2.0
100
AcDbArc
 50
180.0
 51
270.0
  0
LINE
  5
3627
330
371D
100
AcDbEntity
  8
Batteriehalter
100
AcDbLine
 10
-190.5854999420147
 20
320.8215001913762
 30
0.0
 11
-167.5917450219183
 21
320.8215001913762
 31
0.0
  0
LINE
  5
3628
330
371D
100
AcDbEntity
  8
Batteriehalter
100
AcDbLine
 10
-157.5917450219183
 20
357.3965619654019
 30
0.0
 11
162.464120831438
 21
357.3827976841303
 31
0.0
  0
LINE
  5
3629
330
371D
100
AcDbEntity
  8
Batteriehalter
100
AcDbLine
 10
134.9426020308779
 20
129.9265455039742
 30
0.0
 11
134.9004440005438
 21
215.0687238222806
 31
0.0
  0
LINE
  5
362B
330
371D
100
AcDbEntity
  8
Batteriehalter
100
AcDbLine
 10
184.8582859702097
 20
215.0687238222806
 30
0.0
 11
184.9004440005438
 21
129.9265455039742
 31
0.0
  0
LINE
  5
362D
330
371D
100
AcDbEntity
  8
Batteriehalter
100
AcDbLine
 10
144.8582859702097
 20
220.0687238222806
 30
0.0
 11
179.8582859702097
 21
220.0687238222806
 31
0.0
  0
LINE
  5
362E
330
371D
100
AcDbEntity
  8
Batteriehalter
100
AcDbLine
 10
179.9004440005438
 20
124.9265455039742
 30
0.0
 11
139.9426020308779
 21
124.9265455039742
 31
0.0
  0
CIRCLE
  5
3631
330
371D
100
AcDbEntity
  8
Batteriehalter
100
AcDbCircle
 10
177.8582859702097
 20
245.0687238222806
 30
0.0
 40
6.2
  0
CIRCLE
  5
3632
330
371D
100
AcDbEntity
  8
Batteriehalter
100
AcDbCircle
 10
177.8582859702097
 20
265.0687238222806
 30
0.0
 40
6.2
  0
LINE
  5
36E8
330
371D
100
AcDbEntity
  8
Rueckwand
100
AcDbLine
 10
-497.8002152586185
 20
-317.2996443062847
 30
0.0
 11
-494.2651893434611
 21
-315.8313688261421
 31
0.0
  0
ARC
  5
36EF
330
371D
100
AcDbEntity
  8
Rueckwand
100
AcDbCircle
 10
357.2762347010201
 20
293.8376355507713
 30
0.0
 40
2.0
100
AcDbArc
 50
180.0
 51
270.0
  0
ARC
  5
36F0
330
371D
100
AcDbEntity
  8
Rueckwand
100
AcDbCircle
 10
357.27623470102
 20
294.8376355507713
 30
0.0
 40
2.0
100
AcDbArc
 50
90.0
 51
180.0
  0
ARC
  5
36F1
330
371D
100
AcDbEntity
  8
Rueckwand
100
AcDbCircle
 10
443.27623470102
 20
294.8376355507713
 30
0.0
 40
2.0
100
AcDbArc
 50
0.0
 51
90.0
  0
ARC
  5
36F2
330
371D
100
AcDbEntity
  8
Rueckwand
100
AcDbCircle
 10
443.27623470102
 20
293.8376355507713
 30
0.0
 40
2.0
100
AcDbArc
 50
270.0
 51
0.0
  0
ARC
  5
36F3
330
371D
100
AcDbEntity
  8
Rueckwand
100
AcDbCircle
 10
244.275272942777
 20
293.7239337284851
 30
0.0
 40
2.0
100
AcDbArc
 50
180.0
 51
270.0
  0
LINE
  5
36F4
330
371D
100
AcDbEntity
  8
Rueckwand
100
AcDbLine
 10
357.27623470102
 20
296.8376355507713
 30
0.0
 11
443.27623470102
 21
296.8376355507713
 31
0.0
  0
ARC
  5
36F5
330
371D
100
AcDbEntity
  8
Rueckwand
100
AcDbCircle
 10
244.275272942777
 20
294.7239337284851
 30
0.0
 40
2.0
100
AcDbArc
 50
90.0
 51
180.0
  0
ARC
  5
36F6
330
371D
100
AcDbEntity
  8
Rueckwand
100
AcDbCircle
 10
330.275272942777
 20
294.7239337284851
 30
0.0
 40
2.0
100
AcDbArc
 50
0.0
 51
90.0
  0
LINE
  5
36F7
330
371D
100
AcDbEntity
  8
Rueckwand
100
AcDbLine
 10
355.27623470102
 20
293.8376355507713
 30
0.0
 11
355.27623470102
 21
294.8376355507713
 31
0.0
  0
LINE
  5
36F8
330
371D
100
AcDbEntity
  8
Rueckwand
100
AcDbLine
 10
357.2762347010201
 20
291.8376355507713
 30
0.0
 11
443.27623470102
 21
291.8376355507713
 31
0.0
  0
ARC
  5
36F9
330
371D
100
AcDbEntity
  8
Rueckwand
100
AcDbCircle
 10
330.275272942777
 20
293.7239337284851
 30
0.0
 40
2.0
100
AcDbArc
 50
270.0
 51
0.0
  0
LINE
  5
36FA
330
371D
100
AcDbEntity
  8
Rueckwand
100
AcDbLine
 10
445.27623470102
 20
294.8376355507713
 30
0.0
 11
445.27623470102
 21
293.8376355507713
 31
0.0
  0
LINE
  5
36FB
330
371D
100
AcDbEntity
  8
Rueckwand
100
AcDbLine
 10
244.275272942777
 20
296.7239337284851
 30
0.0
 11
330.275272942777
 21
296.7239337284851
 31
0.0
  0
LINE
  5
36FC
330
371D
100
AcDbEntity
  8
Rueckwand
100
AcDbLine
 10
242.275272942777
 20
293.7239337284851
 30
0.0
 11
242.275272942777
 21
294.7239337284851
 31
0.0
  0
LINE
  5
36FD
330
371D
100
AcDbEntity
  8
Rueckwand
100
AcDbLine
 10
244.275272942777
 20
291.7239337284851
 30
0.0
 11
330.275272942777
 21
291.7239337284851
 31
0.0
  0
LINE
  5
36FE
330
371D
100
AcDbEntity
  8
Rueckwand
100
AcDbLine
 10
332.275272942777
 20
294.7239337284851
 30
0.0
 11
332.275272942777
 21
293.7239337284851
 31
0.0
  0
ENDSEC
  0
SECTION
  2
OBJECTS
  0
DICTIONARY
  5
370B
330
0
100
AcDbDictionary
281
     1
  3
ACAD_DETAILVIEWSTYLE
350
37E6
  3
ACAD_GROUP
350
370C
  3
ACAD_LAYOUT
350
3718
  3
ACAD_MATERIAL
350
3741
  3
ACAD_MLEADERSTYLE
350
37E5
  3
ACAD_MLINESTYLE
350
3715
  3
ACAD_PLOTSETTINGS
350
3717
  3
ACAD_PLOTSTYLENAME
350
370D
  3
ACAD_SCALELIST
350
3745
  3
ACAD_SECTIONVIEWSTYLE
350
37E7
  3
ACAD_TABLESTYLE
350
37E4
  3
ACAD_VISUALSTYLE
350
3728
  3
AcDbVariableDictionary
350
37B2
  3
QCAD_OBJECTS
350
3769
  0
SUN
  5
3767
330
3727
100
AcDbSun
 90
        1
290
     0
 63
     7
421
 16777215
 40
1.0
291
     1
 91
  2455826
 92
 54000000
292
     0
 70
     2
 71
   256
280
     1
  0
DICTIONARY
  5
37E6
102
{ACAD_REACTORS
330
370B
102
}
330
370B
100
AcDbDictionary
281
     1
  0
DICTIONARY
  5
370C
102
{ACAD_REACTORS
330
370B
102
}
330
370B
100
AcDbDictionary
281
     1
  0
DICTIONARY
  5
3718
102
{ACAD_REACTORS
330
370B
102
}
330
370B
100
AcDbDictionary
281
     1
  3
Layout1
350
371C
  3
Layout2
350
3724
  3
Model
350
3720
  0
DICTIONARY
  5
3741
102
{ACAD_REACTORS
330
370B
102
}
330
370B
100
AcDbDictionary
281
     1
  3
ByBlock
350
3743
  3
ByLayer
350
3742
  3
Global
350
3744
  0
DICTIONARY
  5
37E5
102
{ACAD_REACTORS
330
370B
102
}
330
370B
100
AcDbDictionary
281
     1
  0
DICTIONARY
  5
3715
102
{ACAD_REACTORS
330
370B
102
}
330
370B
100
AcDbDictionary
281
     1
  3
Standard
350
3716
  0
DICTIONARY
  5
3717
102
{ACAD_REACTORS
330
370B
102
}
330
370B
100
AcDbDictionary
281
     1
  0
ACDBDICTIONARYWDFLT
  5
370D
102
{ACAD_REACTORS
330
370B
102
}
330
370B
100
AcDbDictionary
281
     1
  3
Normal
350
370E
100
AcDbDictionaryWithDefault
340
370E
  0
DICTIONARY
  5
3745
102
{ACAD_REACTORS
330
370B
102
}
330
370B
100
AcDbDictionary
281
     1
  3
A0
350
3746
  3
A1
350
3747
  3
A2
350
3748
  3
A3
350
3749
  3
A4
350
374A
  3
A5
350
374B
  3
A6
350
374C
  3
A7
350
374D
  3
A8
350
374E
  3
A9
350
374F
  3
B0
350
3750
  3
B1
350
3751
  3
B2
350
3752
  3
B3
350
3753
  3
B4
350
3754
  3
B5
350
3755
  3
B6
350
3756
  3
B7
350
3757
  3
B8
350
3758
  3
B9
350
3759
  3
C0
350
375A
  3
C1
350
375B
  3
C2
350
375C
  3
C3
350
375D
  3
C4
350
375E
  3
C5
350
375F
  3
C6
350
3760
  3
C7
350
3761
  3
C8
350
3762
  3
C9
350
3763
  3
D0
350
3764
  3
D1
350
3765
  3
D2
350
3766
  0
DICTIONARY
  5
37E7
102
{ACAD_REACTORS
330
370B
102
}
330
370B
100
AcDbDictionary
281
     1
  0
DICTIONARY
  5
37E4
102
{ACAD_REACTORS
330
370B
102
}
330
370B
100
AcDbDictionary
281
     1
  0
DICTIONARY
  5
3728
102
{ACAD_REACTORS
330
370B
102
}
330
370B
100
AcDbDictionary
281
     1
  3
2dWireframe
350
372D
  3
Basic
350
3730
  3
Brighten
350
3734
  3
ColorChange
350
3738
  3
Conceptual
350
3732
  3
Dim
350
3733
  3
EdgeColorOff
350
373B
  3
Facepattern
350
3737
  3
Flat
350
3729
  3
FlatWithEdges
350
372A
  3
Gouraud
350
372B
  3
GouraudWithEdges
350
372C
  3
Hidden
350
372F
  3
JitterOff
350
3739
  3
Linepattern
350
3736
  3
OverhangOff
350
373A
  3
Realistic
350
3731
  3
Shaded
350
3740
  3
Shaded with edges
350
373F
  3
Shades of Gray
350
373C
  3
Sketchy
350
373D
  3
Thicken
350
3735
  3
Wireframe
350
372E
  3
X-Ray
350
373E
  0
DICTIONARY
  5
37B2
102
{ACAD_REACTORS
330
370B
102
}
330
370B
100
AcDbDictionary
281
     1
  3
CANNOSCALE
350
37B3
  0
DICTIONARY
  5
3769
102
{ACAD_REACTORS
330
370B
102
}
330
370B
100
AcDbDictionary
281
     1
  3
Grid/DisplayGrid00
350
376A
  3
Grid/DisplayGrid01
350
376B
  3
Grid/DisplayGrid02
350
376C
  3
Grid/DisplayGrid03
350
376D
  3
Grid/GridSpacingX00
350
376E
  3
Grid/GridSpacingX01
350
376F
  3
Grid/GridSpacingX02
350
3770
  3
Grid/GridSpacingX03
350
3771
  3
Grid/GridSpacingY00
350
3772
  3
Grid/GridSpacingY01
350
3773
  3
Grid/GridSpacingY02
350
3774
  3
Grid/GridSpacingY03
350
3775
  3
Grid/IsometricGrid00
350
3776
  3
Grid/IsometricGrid01
350
3777
  3
Grid/IsometricGrid02
350
3778
  3
Grid/IsometricGrid03
350
3779
  3
Grid/IsometricProjection00
350
377A
  3
Grid/IsometricProjection01
350
377B
  3
Grid/IsometricProjection02
350
377C
  3
Grid/IsometricProjection03
350
377D
  3
Grid/MetaGridSpacingX00
350
377E
  3
Grid/MetaGridSpacingX01
350
377F
  3
Grid/MetaGridSpacingX02
350
3780
  3
Grid/MetaGridSpacingX03
350
3781
  3
Grid/MetaGridSpacingY00
350
3782
  3
Grid/MetaGridSpacingY01
350
3783
  3
Grid/MetaGridSpacingY02
350
3784
  3
Grid/MetaGridSpacingY03
350
3785
  3
MultiPageSettings/Columns
350
3786
  3
MultiPageSettings/GlueMarginsBottom
350
3787
  3
MultiPageSettings/GlueMarginsLeft
350
3788
  3
MultiPageSettings/GlueMarginsRight
350
3789
  3
MultiPageSettings/GlueMarginsTop
350
378A
  3
MultiPageSettings/PrintCropMarks
350
378B
  3
MultiPageSettings/Rows
350
378C
  3
PageSettings/OffsetX
350
378D
  3
PageSettings/OffsetY
350
378E
  3
PageSettings/PageOrientation
350
378F
  3
PageSettings/PaperHeight
350
3790
  3
PageSettings/PaperWidth
350
3791
  3
PageSettings/Scale
350
3792
  3
PageSettings/ShowPaperBorders
350
3793
  3
UnitSettings/PaperUnit
350
3794
  0
LAYOUT
  5
371C
102
{ACAD_REACTORS
330
3718
102
}
330
3718
100
AcDbPlotSettings
  1

  2
none_device
  4

  6

 40
0.0
 41
0.0
 42
0.0
 43
0.0
 44
0.0
 45
0.0
 46
0.0
 47
0.0
 48
0.0
 49
0.0
140
0.0
141
0.0
142
1.0
143
1.0
 70
   688
 72
     0
 73
     0
 74
     5
  7

 75
    16
 76
     0
 77
     2
 78
   300
147
1.0
148
0.0
149
0.0
100
AcDbLayout
  1
Layout1
 70
     1
 71
     1
 10
0.0
 20
0.0
 11
12.0
 21
9.0
 12
0.0
 22
0.0
 32
0.0
 14
1.000000000000000E+20
 24
1.000000000000000E+20
 34
1.000000000000000E+20
 15
-1.000000000000000E+20
 25
-1.000000000000000E+20
 35
-1.000000000000000E+20
146
0.0
 13
0.0
 23
0.0
 33
0.0
 16
1.0
 26
0.0
 36
0.0
 17
0.0
 27
1.0
 37
0.0
 76
     0
330
3719
  0
LAYOUT
  5
3724
102
{ACAD_REACTORS
330
3718
102
}
330
3718
100
AcDbPlotSettings
  1

  2
none_device
  4

  6

 40
0.0
 41
0.0
 42
0.0
 43
0.0
 44
0.0
 45
0.0
 46
0.0
 47
0.0
 48
0.0
 49
0.0
140
0.0
141
0.0
142
1.0
143
1.0
 70
   688
 72
     0
 73
     0
 74
     5
  7

 75
    16
 76
     0
 77
     2
 78
   300
147
1.0
148
0.0
149
0.0
100
AcDbLayout
  1
Layout2
 70
     1
 71
     2
 10
0.0
 20
0.0
 11
0.0
 21
0.0
 12
0.0
 22
0.0
 32
0.0
 14
0.0
 24
0.0
 34
0.0
 15
0.0
 25
0.0
 35
0.0
146
0.0
 13
0.0
 23
0.0
 33
0.0
 16
1.0
 26
0.0
 36
0.0
 17
0.0
 27
1.0
 37
0.0
 76
     0
330
3721
  0
LAYOUT
  5
3720
102
{ACAD_REACTORS
330
3718
102
}
330
3718
100
AcDbPlotSettings
  1

  2
none_device
  4
Letter_(8.50_x_11.00_Inches)
  6

 40
6.35
 41
6.35
 42
6.35000508
 43
6.35000508
 44
215.9
 45
279.4
 46
0.0
 47
0.0
 48
0.0
 49
0.0
140
0.0
141
0.0
142
1.0
143
1.0
 70
  1712
 72
     0
 73
     0
 74
     0
  7

 75
     0
 76
     0
 77
     2
 78
   300
147
1.0
148
0.0
149
0.0
100
AcDbLayout
  1
Model
 70
     1
 71
     0
 10
0.0
 20
0.0
 11
12.0
 21
9.0
 12
0.0
 22
0.0
 32
0.0
 14
1.000000000000000E+20
 24
1.000000000000000E+20
 34
1.000000000000000E+20
 15
-1.000000000000000E+20
 25
-1.000000000000000E+20
 35
-1.000000000000000E+20
146
0.0
 13
0.0
 23
0.0
 33
0.0
 16
1.0
 26
0.0
 36
0.0
 17
0.0
 27
1.0
 37
0.0
 76
     0
330
371D
331
3727
  0
MATERIAL
  5
3743
102
{ACAD_REACTORS
330
3741
102
}
330
3741
100
AcDbMaterial
  1
ByBlock
 72
     1
 94
      127
  0
MATERIAL
  5
3742
102
{ACAD_REACTORS
330
3741
102
}
330
3741
100
AcDbMaterial
  1
ByLayer
 72
     1
 94
      127
  0
MATERIAL
  5
3744
102
{ACAD_REACTORS
330
3741
102
}
330
3741
100
AcDbMaterial
  1
Global
 72
     1
 94
      127
  0
MLINESTYLE
  5
3716
102
{ACAD_REACTORS
330
3715
102
}
330
3715
100
AcDbMlineStyle
  2
Standard
 70
     0
  3

 62
   256
 51
90.0
 52
90.0
 71
     2
 49
0.5
 62
   256
  6
BYLAYER
 49
-0.5
 62
   256
  6
BYLAYER
  0
ACDBPLACEHOLDER
  5
370E
102
{ACAD_REACTORS
330
370D
102
}
330
370D
  0
SCALE
  5
3746
102
{ACAD_REACTORS
330
3745
102
}
330
3745
100
AcDbScale
 70
     0
300
1:1
140
1.0
141
1.0
290
     1
  0
SCALE
  5
3747
102
{ACAD_REACTORS
330
3745
102
}
330
3745
100
AcDbScale
 70
     0
300
1:2
140
1.0
141
2.0
290
     0
  0
SCALE
  5
3748
102
{ACAD_REACTORS
330
3745
102
}
330
3745
100
AcDbScale
 70
     0
300
1:4
140
1.0
141
4.0
290
     0
  0
SCALE
  5
3749
102
{ACAD_REACTORS
330
3745
102
}
330
3745
100
AcDbScale
 70
     0
300
1:5
140
1.0
141
5.0
290
     0
  0
SCALE
  5
374A
102
{ACAD_REACTORS
330
3745
102
}
330
3745
100
AcDbScale
 70
     0
300
1:8
140
1.0
141
8.0
290
     0
  0
SCALE
  5
374B
102
{ACAD_REACTORS
330
3745
102
}
330
3745
100
AcDbScale
 70
     0
300
1:10
140
1.0
141
10.0
290
     0
  0
SCALE
  5
374C
102
{ACAD_REACTORS
330
3745
102
}
330
3745
100
AcDbScale
 70
     0
300
1:16
140
1.0
141
16.0
290
     0
  0
SCALE
  5
374D
102
{ACAD_REACTORS
330
3745
102
}
330
3745
100
AcDbScale
 70
     0
300
1:20
140
1.0
141
20.0
290
     0
  0
SCALE
  5
374E
102
{ACAD_REACTORS
330
3745
102
}
330
3745
100
AcDbScale
 70
     0
300
1:30
140
1.0
141
30.0
290
     0
  0
SCALE
  5
374F
102
{ACAD_REACTORS
330
3745
102
}
330
3745
100
AcDbScale
 70
     0
300
1:40
140
1.0
141
40.0
290
     0
  0
SCALE
  5
3750
102
{ACAD_REACTORS
330
3745
102
}
330
3745
100
AcDbScale
 70
     0
300
1:50
140
1.0
141
50.0
290
     0
  0
SCALE
  5
3751
102
{ACAD_REACTORS
330
3745
102
}
330
3745
100
AcDbScale
 70
     0
300
1:100
140
1.0
141
100.0
290
     0
  0
SCALE
  5
3752
102
{ACAD_REACTORS
330
3745
102
}
330
3745
100
AcDbScale
 70
     0
300
2:1
140
2.0
141
1.0
290
     0
  0
SCALE
  5
3753
102
{ACAD_REACTORS
330
3745
102
}
330
3745
100
AcDbScale
 70
     0
300
4:1
140
4.0
141
1.0
290
     0
  0
SCALE
  5
3754
102
{ACAD_REACTORS
330
3745
102
}
330
3745
100
AcDbScale
 70
     0
300
8:1
140
8.0
141
1.0
290
     0
  0
SCALE
  5
3755
102
{ACAD_REACTORS
330
3745
102
}
330
3745
100
AcDbScale
 70
     0
300
10:1
140
10.0
141
1.0
290
     0
  0
SCALE
  5
3756
102
{ACAD_REACTORS
330
3745
102
}
330
3745
100
AcDbScale
 70
     0
300
100:1
140
100.0
141
1.0
290
     0
  0
SCALE
  5
3757
102
{ACAD_REACTORS
330
3745
102
}
330
3745
100
AcDbScale
 70
     0
300
1/128" = 1'-0"
140
0.0078125
141
12.0
290
     0
  0
SCALE
  5
3758
102
{ACAD_REACTORS
330
3745
102
}
330
3745
100
AcDbScale
 70
     0
300
1/64" = 1'-0"
140
0.015625
141
12.0
290
     0
  0
SCALE
  5
3759
102
{ACAD_REACTORS
330
3745
102
}
330
3745
100
AcDbScale
 70
     0
300
1/32" = 1'-0"
140
0.03125
141
12.0
290
     0
  0
SCALE
  5
375A
102
{ACAD_REACTORS
330
3745
102
}
330
3745
100
AcDbScale
 70
     0
300
1/16" = 1'-0"
140
0.0625
141
12.0
290
     0
  0
SCALE
  5
375B
102
{ACAD_REACTORS
330
3745
102
}
330
3745
100
AcDbScale
 70
     0
300
3/32" = 1'-0"
140
0.09375
141
12.0
290
     0
  0
SCALE
  5
375C
102
{ACAD_REACTORS
330
3745
102
}
330
3745
100
AcDbScale
 70
     0
300
1/8" = 1'-0"
140
0.125
141
12.0
290
     0
  0
SCALE
  5
375D
102
{ACAD_REACTORS
330
3745
102
}
330
3745
100
AcDbScale
 70
     0
300
3/16" = 1'-0"
140
0.1875
141
12.0
290
     0
  0
SCALE
  5
375E
102
{ACAD_REACTORS
330
3745
102
}
330
3745
100
AcDbScale
 70
     0
300
1/4" = 1'-0"
140
0.25
141
12.0
290
     0
  0
SCALE
  5
375F
102
{ACAD_REACTORS
330
3745
102
}
330
3745
100
AcDbScale
 70
     0
300
3/8" = 1'-0"
140
0.375
141
12.0
290
     0
  0
SCALE
  5
3760
102
{ACAD_REACTORS
330
3745
102
}
330
3745
100
AcDbScale
 70
     0
300
1/2" = 1'-0"
140
0.5
141
12.0
290
     0
  0
SCALE
  5
3761
102
{ACAD_REACTORS
330
3745
102
}
330
3745
100
AcDbScale
 70
     0
300
3/4" = 1'-0"
140
0.75
141
12.0
290
     0
  0
SCALE
  5
3762
102
{ACAD_REACTORS
330
3745
102
}
330
3745
100
AcDbScale
 70
     0
300
1" = 1'-0"
140
1.0
141
12.0
290
     0
  0
SCALE
  5
3763
102
{ACAD_REACTORS
330
3745
102
}
330
3745
100
AcDbScale
 70
     0
300
1-1/2" = 1'-0"
140
1.5
141
12.0
290
     0
  0
SCALE
  5
3764
102
{ACAD_REACTORS
330
3745
102
}
330
3745
100
AcDbScale
 70
     0
300
3" = 1'-0"
140
3.0
141
12.0
290
     0
  0
SCALE
  5
3765
102
{ACAD_REACTORS
330
3745
102
}
330
3745
100
AcDbScale
 70
     0
300
6" = 1'-0"
140
6.0
141
12.0
290
     0
  0
SCALE
  5
3766
102
{ACAD_REACTORS
330
3745
102
}
330
3745
100
AcDbScale
 70
     0
300
1'-0" = 1'-0"
140
12.0
141
12.0
290
     0
  0
VISUALSTYLE
  5
372D
102
{ACAD_REACTORS
330
3728
102
}
102
{ACAD_XDICTIONARY
360
37BC
102
}
330
3728
100
AcDbVisualStyle
  2
2dWireframe
 70
     4
 71
     0
 72
     2
 73
     0
 90
        0
 40
0.6
 41
30.0
 62
     5
 63
     7
421
 16777215
 74
     1
 91
        4
 64
     7
 65
   257
 75
     1
175
     1
 42
1.0
 92
        0
 66
   257
 43
1.0
 76
     1
 77
     6
 78
     2
 67
     7
 79
     5
170
     0
171
     0
290
     0
174
     0
 93
        1
 44
0.0
173
     0
291
     0
 45
0.0
  0
VISUALSTYLE
  5
3730
102
{ACAD_REACTORS
330
3728
102
}
102
{ACAD_XDICTIONARY
360
37C2
102
}
330
3728
100
AcDbVisualStyle
  2
Basic
 70
     7
 71
     1
 72
     0
 73
     1
 90
        0
 40
0.6
 41
30.0
 62
     5
 63
     7
421
 16777215
 74
     0
 91
        4
 64
     7
 65
   257
 75
     1
175
     1
 42
1.0
 92
        8
 66
     7
 43
1.0
 76
     1
 77
     6
 78
     2
 67
     7
 79
     5
170
     0
171
     0
290
     0
174
     0
 93
        1
 44
0.0
173
     0
291
     1
 45
0.0
  0
VISUALSTYLE
  5
3734
102
{ACAD_REACTORS
330
3728
102
}
102
{ACAD_XDICTIONARY
360
37CA
102
}
330
3728
100
AcDbVisualStyle
  2
Brighten
 70
    12
 71
     2
 72
     2
 73
     0
 90
        0
 40
0.6
 41
30.0
 62
     5
 63
     7
421
 16777215
 74
     1
 91
        4
 64
     7
 65
   257
 75
     1
175
     1
 42
1.0
 92
        8
 66
     7
 43
1.0
 76
     1
 77
     6
 78
     2
 67
     7
 79
     5
170
     0
171
     0
290
     0
174
     0
 93
        1
 44
50.0
173
     0
291
     1
 45
0.0
  0
VISUALSTYLE
  5
3738
102
{ACAD_REACTORS
330
3728
102
}
102
{ACAD_XDICTIONARY
360
37D2
102
}
330
3728
100
AcDbVisualStyle
  2
ColorChange
 70
    16
 71
     2
 72
     2
 73
     3
 90
        0
 40
0.6
 41
30.0
 62
     5
 63
     8
421
  8421504
 74
     1
 91
        4
 64
     7
 65
   257
 75
     1
175
     1
 42
1.0
 92
        8
 66
     8
424
  8421504
 43
1.0
 76
     1
 77
     6
 78
     2
 67
     7
 79
     5
170
     0
171
     0
290
     0
174
     0
 93
        1
 44
0.0
173
     0
291
     1
 45
0.0
  0
VISUALSTYLE
  5
3732
102
{ACAD_REACTORS
330
3728
102
}
102
{ACAD_XDICTIONARY
360
37C6
102
}
330
3728
100
AcDbVisualStyle
  2
Conceptual
 70
     9
 71
     3
 72
     2
 73
     0
 90
        0
 40
0.6
 41
30.0
 62
     5
 63
     7
421
 16777215
 74
     2
 91
        2
 64
     7
 65
   257
 75
     1
175
     1
 42
179.0
 92
        8
 66
     7
 43
1.0
 76
     1
 77
     6
 78
     2
 67
     7
 79
     3
170
     0
171
     0
290
     0
174
     0
 93
        1
 44
0.0
173
     0
291
     0
 45
0.0
  0
VISUALSTYLE
  5
3733
102
{ACAD_REACTORS
330
3728
102
}
102
{ACAD_XDICTIONARY
360
37C8
102
}
330
3728
100
AcDbVisualStyle
  2
Dim
 70
    11
 71
     2
 72
     2
 73
     0
 90
        0
 40
0.6
 41
30.0
 62
     5
 63
     7
421
 16777215
 74
     1
 91
        4
 64
     7
 65
   257
 75
     1
175
     1
 42
1.0
 92
        8
 66
     7
 43
1.0
 76
     1
 77
     6
 78
     2
 67
     7
 79
     5
170
     0
171
     0
290
     0
174
     0
 93
        1
 44
-50.0
173
     0
291
     1
 45
0.0
  0
VISUALSTYLE
  5
373B
102
{ACAD_REACTORS
330
3728
102
}
102
{ACAD_XDICTIONARY
360
37D8
102
}
330
3728
100
AcDbVisualStyle
  2
EdgeColorOff
 70
    22
 71
     2
 72
     2
 73
     0
 90
        0
 40
0.6
 41
30.0
 62
     5
 63
     7
421
 16777215
 74
     1
 91
        4
 64
     7
 65
   257
 75
     1
175
     1
 42
1.0
 92
        8
 66
     7
 43
1.0
 76
     1
 77
     6
 78
     2
 67
     7
 79
     5
170
     0
171
     0
290
     0
174
     0
 93
        1
 44
0.0
173
     0
291
     1
 45
0.0
  0
VISUALSTYLE
  5
3737
102
{ACAD_REACTORS
330
3728
102
}
102
{ACAD_XDICTIONARY
360
37D0
102
}
330
3728
100
AcDbVisualStyle
  2
Facepattern
 70
    15
 71
     2
 72
     2
 73
     0
 90
        0
 40
0.6
 41
30.0
 62
     5
 63
     7
421
 16777215
 74
     1
 91
        4
 64
     7
 65
   257
 75
     1
175
     1
 42
1.0
 92
        8
 66
     7
 43
1.0
 76
     1
 77
     6
 78
     2
 67
     7
 79
     5
170
     0
171
     0
290
     0
174
     0
 93
        1
 44
0.0
173
     0
291
     1
 45
0.0
  0
VISUALSTYLE
  5
3729
102
{ACAD_REACTORS
330
3728
102
}
102
{ACAD_XDICTIONARY
360
37B4
102
}
330
3728
100
AcDbVisualStyle
  2
Flat
 70
     0
 71
     2
 72
     1
 73
     1
 90
        2
 40
0.6
 41
30.0
 62
     5
 63
     7
421
 16777215
 74
     0
 91
        0
 64
     7
 65
   257
 75
     1
175
     1
 42
1.0
 92
        8
 66
     7
 43
1.0
 76
     1
 77
     6
 78
     2
 67
     7
 79
     5
170
     0
171
     0
290
     0
174
     0
 93
       13
 44
0.0
173
     0
291
     1
 45
0.0
  0
VISUALSTYLE
  5
372A
102
{ACAD_REACTORS
330
3728
102
}
102
{ACAD_XDICTIONARY
360
37B6
102
}
330
3728
100
AcDbVisualStyle
  2
FlatWithEdges
 70
     1
 71
     2
 72
     1
 73
     1
 90
        2
 40
0.6
 41
30.0
 62
     5
 63
     7
421
 16777215
 74
     1
 91
        0
 64
     7
 65
   257
 75
     1
175
     1
 42
1.0
 92
        0
 66
   257
 43
1.0
 76
     1
 77
     6
 78
     2
 67
     7
 79
     5
170
     0
171
     0
290
     0
174
     0
 93
       13
 44
0.0
173
     0
291
     1
 45
0.0
  0
VISUALSTYLE
  5
372B
102
{ACAD_REACTORS
330
3728
102
}
102
{ACAD_XDICTIONARY
360
37B8
102
}
330
3728
100
AcDbVisualStyle
  2
Gouraud
 70
     2
 71
     2
 72
     2
 73
     1
 90
        2
 40
0.6
 41
30.0
 62
     5
 63
     7
421
 16777215
 74
     0
 91
        0
 64
     7
 65
   257
 75
     1
175
     1
 42
1.0
 92
        0
 66
     7
 43
1.0
 76
     1
 77
     6
 78
     2
 67
     7
 79
     5
170
     0
171
     0
290
     0
174
     0
 93
       13
 44
0.0
173
     0
291
     1
 45
0.0
  0
VISUALSTYLE
  5
372C
102
{ACAD_REACTORS
330
3728
102
}
102
{ACAD_XDICTIONARY
360
37BA
102
}
330
3728
100
AcDbVisualStyle
  2
GouraudWithEdges
 70
     3
 71
     2
 72
     2
 73
     1
 90
        2
 40
0.6
 41
30.0
 62
     5
 63
     7
421
 16777215
 74
     1
 91
        0
 64
     7
 65
   257
 75
     1
175
     1
 42
1.0
 92
        0
 66
   257
 43
1.0
 76
     1
 77
     6
 78
     2
 67
     7
 79
     5
170
     0
171
     0
290
     0
174
     0
 93
       13
 44
0.0
173
     0
291
     1
 45
0.0
  0
VISUALSTYLE
  5
372F
102
{ACAD_REACTORS
330
3728
102
}
102
{ACAD_XDICTIONARY
360
37C0
102
}
330
3728
100
AcDbVisualStyle
  2
Hidden
 70
     6
 71
     1
 72
     2
 73
     2
 90
        0
 40
0.6
 41
30.0
 62
     5
 63
     7
421
 16777215
 74
     2
 91
        2
 64
     7
 65
   257
 75
     2
175
     1
 42
40.0
 92
        0
 66
   257
 43
1.0
 76
     1
 77
     6
 78
     2
 67
     7
 79
     3
170
     0
171
     0
290
     0
174
     0
 93
        1
 44
0.0
173
     0
291
     0
 45
0.0
  0
VISUALSTYLE
  5
3739
102
{ACAD_REACTORS
330
3728
102
}
102
{ACAD_XDICTIONARY
360
37D4
102
}
330
3728
100
AcDbVisualStyle
  2
JitterOff
 70
    20
 71
     2
 72
     2
 73
     0
 90
        0
 40
0.6
 41
30.0
 62
     5
 63
     7
421
 16777215
 74
     1
 91
        4
 64
     7
 65
   257
 75
     1
175
     1
 42
1.0
 92
       10
 66
     7
 43
1.0
 76
     1
 77
     6
 78
     2
 67
     7
 79
     5
170
     0
171
     0
290
     0
174
     0
 93
        1
 44
0.0
173
     0
291
     1
 45
0.0
  0
VISUALSTYLE
  5
3736
102
{ACAD_REACTORS
330
3728
102
}
102
{ACAD_XDICTIONARY
360
37CE
102
}
330
3728
100
AcDbVisualStyle
  2
Linepattern
 70
    14
 71
     2
 72
     2
 73
     0
 90
        0
 40
0.6
 41
30.0
 62
     5
 63
     7
421
 16777215
 74
     1
 91
        4
 64
     7
 65
   257
 75
     7
175
     7
 42
1.0
 92
        8
 66
     7
 43
1.0
 76
     1
 77
     6
 78
     2
 67
     7
 79
     5
170
     0
171
     0
290
     0
174
     0
 93
        1
 44
0.0
173
     0
291
     1
 45
0.0
  0
VISUALSTYLE
  5
373A
102
{ACAD_REACTORS
330
3728
102
}
102
{ACAD_XDICTIONARY
360
37D6
102
}
330
3728
100
AcDbVisualStyle
  2
OverhangOff
 70
    21
 71
     2
 72
     2
 73
     0
 90
        0
 40
0.6
 41
30.0
 62
     5
 63
     7
421
 16777215
 74
     1
 91
        4
 64
     7
 65
   257
 75
     1
175
     1
 42
1.0
 92
        9
 66
     7
 43
1.0
 76
     1
 77
     6
 78
     2
 67
     7
 79
     5
170
     0
171
     0
290
     0
174
     0
 93
        1
 44
0.0
173
     0
291
     1
 45
0.0
  0
VISUALSTYLE
  5
3731
102
{ACAD_REACTORS
330
3728
102
}
102
{ACAD_XDICTIONARY
360
37C4
102
}
330
3728
100
AcDbVisualStyle
  2
Realistic
 70
     8
 71
     2
 72
     3
 73
     0
 90
        2
 40
0.6
 41
30.0
 62
     5
 63
     7
421
 16777215
 74
     0
 91
        0
 64
     7
 65
   257
 75
     1
175
     1
 42
1.0
 92
        8
 66
   257
 43
1.0
 76
     1
 77
     6
 78
     2
 67
     7
 79
     3
170
     0
171
     0
290
     0
174
     0
 93
       13
 44
0.0
173
     0
291
     0
 45
0.0
  0
VISUALSTYLE
  5
3740
102
{ACAD_REACTORS
330
3728
102
}
102
{ACAD_XDICTIONARY
360
37E2
102
}
330
3728
100
AcDbVisualStyle
  2
Shaded
 70
    27
 71
     2
 72
     2
 73
     1
 90
        2
 40
0.6
 41
30.0
 62
     5
 63
     7
421
 16777215
 74
     0
 91
        4
 64
     7
 65
   257
 75
     1
175
     1
 42
1.0
 92
        8
 66
   257
 43
1.0
 76
     1
 77
     6
 78
     2
 67
     8
425
  7895160
 79
     3
170
     0
171
     0
290
     0
174
     0
 93
        5
 44
0.0
173
     0
291
     0
 45
0.0
  0
VISUALSTYLE
  5
373F
102
{ACAD_REACTORS
330
3728
102
}
102
{ACAD_XDICTIONARY
360
37E0
102
}
330
3728
100
AcDbVisualStyle
  2
Shaded with edges
 70
    26
 71
     2
 72
     2
 73
     1
 90
        2
 40
0.6
 41
30.0
 62
     5
 63
     7
421
 16777215
 74
     1
 91
       10
 64
     7
 65
   257
 75
     2
175
     1
 42
1.0
 92
        8
 66
   257
 43
1.0
 76
     1
 77
     6
 78
     2
 67
     7
 79
     3
170
     0
171
     0
290
     0
174
     0
 93
        5
 44
0.0
173
     0
291
     0
 45
0.0
  0
VISUALSTYLE
  5
373C
102
{ACAD_REACTORS
330
3728
102
}
102
{ACAD_XDICTIONARY
360
37DA
102
}
330
3728
100
AcDbVisualStyle
  2
Shades of Gray
 70
    23
 71
     2
 72
     2
 73
     3
 90
        0
 40
0.6
 41
30.0
 62
     5
 63
     7
421
 16777215
 74
     2
 91
        2
 64
     7
 65
     7
 75
     1
175
     1
 42
40.0
 92
        8
 66
     7
 43
1.0
 76
     1
 77
     6
 78
     2
 67
     7
 79
     3
170
     0
171
     0
290
     0
174
     0
 93
        1
 44
0.0
173
     0
291
     0
 45
0.0
  0
VISUALSTYLE
  5
373D
102
{ACAD_REACTORS
330
3728
102
}
102
{ACAD_XDICTIONARY
360
37DC
102
}
330
3728
100
AcDbVisualStyle
  2
Sketchy
 70
    24
 71
     1
 72
     2
 73
     2
 90
        0
 40
0.6
 41
30.0
 62
     5
 63
     7
421
 16777215
 74
     2
 91
        2
 64
     7
 65
     7
 75
     1
175
     1
 42
40.0
 92
       11
 66
     7
 43
1.0
 76
     1
 77
     6
 78
     2
 67
     7
 79
     6
170
     0
171
     0
290
     0
174
     0
 93
        1
 44
0.0
173
     0
291
     0
 45
0.0
  0
VISUALSTYLE
  5
3735
102
{ACAD_REACTORS
330
3728
102
}
102
{ACAD_XDICTIONARY
360
37CC
102
}
330
3728
100
AcDbVisualStyle
  2
Thicken
 70
    13
 71
     2
 72
     2
 73
     0
 90
        0
 40
0.6
 41
30.0
 62
     5
 63
     7
421
 16777215
 74
     1
 91
        4
 64
     7
 65
   257
 75
     1
175
     1
 42
1.0
 92
       12
 66
     7
 43
1.0
 76
     1
 77
     6
 78
     2
 67
     7
 79
     5
170
     0
171
     0
290
     0
174
     0
 93
        1
 44
0.0
173
     0
291
     1
 45
0.0
  0
VISUALSTYLE
  5
372E
102
{ACAD_REACTORS
330
3728
102
}
102
{ACAD_XDICTIONARY
360
37BE
102
}
330
3728
100
AcDbVisualStyle
  2
Wireframe
 70
     5
 71
     0
 72
     2
 73
     0
 90
        0
 40
0.6
 41
30.0
 62
     5
 63
     7
421
 16777215
 74
     1
 91
        4
 64
     7
 65
   257
 75
     1
175
     1
 42
1.0
 92
        0
 66
   257
 43
1.0
 76
     1
 77
     6
 78
     2
 67
     7
 79
     3
170
     0
171
     0
290
     0
174
     0
 93
        1
 44
0.0
173
     0
291
     0
 45
0.0
  0
VISUALSTYLE
  5
373E
102
{ACAD_REACTORS
330
3728
102
}
102
{ACAD_XDICTIONARY
360
37DE
102
}
330
3728
100
AcDbVisualStyle
  2
X-Ray
 70
    25
 71
     2
 72
     2
 73
     1
 90
        1
 40
0.5
 41
30.0
 62
     5
 63
     7
421
 16777215
 74
     1
 91
        0
 64
     7
 65
   257
 75
     1
175
     1
 42
1.0
 92
        8
 66
     7
 43
1.0
 76
     1
 77
     6
 78
     2
 67
     7
 79
     3
170
     0
171
     0
290
     0
174
     0
 93
       13
 44
0.0
173
     0
291
     0
 45
0.0
  0
DICTIONARYVAR
  5
37B3
102
{ACAD_REACTORS
330
37B2
102
}
330
37B2
100
DictionaryVariables
280
     0
  1
1:1
  0
XRECORD
  5
376A
102
{ACAD_REACTORS
330
3769
102
}
330
3769
100
AcDbXrecord
280
     1
290
     0
  0
XRECORD
  5
376B
102
{ACAD_REACTORS
330
3769
102
}
330
3769
100
AcDbXrecord
280
     1
290
     1
  0
XRECORD
  5
376C
102
{ACAD_REACTORS
330
3769
102
}
330
3769
100
AcDbXrecord
280
     1
290
     1
  0
XRECORD
  5
376D
102
{ACAD_REACTORS
330
3769
102
}
330
3769
100
AcDbXrecord
280
     1
290
     1
  0
XRECORD
  5
376E
102
{ACAD_REACTORS
330
3769
102
}
330
3769
100
AcDbXrecord
280
     1
1000
auto
  0
XRECORD
  5
376F
102
{ACAD_REACTORS
330
3769
102
}
330
3769
100
AcDbXrecord
280
     1
1000
auto
  0
XRECORD
  5
3770
102
{ACAD_REACTORS
330
3769
102
}
330
3769
100
AcDbXrecord
280
     1
1000
auto
  0
XRECORD
  5
3771
102
{ACAD_REACTORS
330
3769
102
}
330
3769
100
AcDbXrecord
280
     1
1000
auto
  0
XRECORD
  5
3772
102
{ACAD_REACTORS
330
3769
102
}
330
3769
100
AcDbXrecord
280
     1
1000
auto
  0
XRECORD
  5
3773
102
{ACAD_REACTORS
330
3769
102
}
330
3769
100
AcDbXrecord
280
     1
1000
auto
  0
XRECORD
  5
3774
102
{ACAD_REACTORS
330
3769
102
}
330
3769
100
AcDbXrecord
280
     1
1000
auto
  0
XRECORD
  5
3775
102
{ACAD_REACTORS
330
3769
102
}
330
3769
100
AcDbXrecord
280
     1
1000
auto
  0
XRECORD
  5
3776
102
{ACAD_REACTORS
330
3769
102
}
330
3769
100
AcDbXrecord
280
     1
290
     0
  0
XRECORD
  5
3777
102
{ACAD_REACTORS
330
3769
102
}
330
3769
100
AcDbXrecord
280
     1
290
     0
  0
XRECORD
  5
3778
102
{ACAD_REACTORS
330
3769
102
}
330
3769
100
AcDbXrecord
280
     1
290
     0
  0
XRECORD
  5
3779
102
{ACAD_REACTORS
330
3769
102
}
330
3769
100
AcDbXrecord
280
     1
290
     0
  0
XRECORD
  5
377A
102
{ACAD_REACTORS
330
3769
102
}
330
3769
100
AcDbXrecord
280
     1
 90
        0
  0
XRECORD
  5
377B
102
{ACAD_REACTORS
330
3769
102
}
330
3769
100
AcDbXrecord
280
     1
 90
        0
  0
XRECORD
  5
377C
102
{ACAD_REACTORS
330
3769
102
}
330
3769
100
AcDbXrecord
280
     1
 90
        0
  0
XRECORD
  5
377D
102
{ACAD_REACTORS
330
3769
102
}
330
3769
100
AcDbXrecord
280
     1
 90
        0
  0
XRECORD
  5
377E
102
{ACAD_REACTORS
330
3769
102
}
330
3769
100
AcDbXrecord
280
     1
1000
auto
  0
XRECORD
  5
377F
102
{ACAD_REACTORS
330
3769
102
}
330
3769
100
AcDbXrecord
280
     1
1000
auto
  0
XRECORD
  5
3780
102
{ACAD_REACTORS
330
3769
102
}
330
3769
100
AcDbXrecord
280
     1
1000
auto
  0
XRECORD
  5
3781
102
{ACAD_REACTORS
330
3769
102
}
330
3769
100
AcDbXrecord
280
     1
1000
auto
  0
XRECORD
  5
3782
102
{ACAD_REACTORS
330
3769
102
}
330
3769
100
AcDbXrecord
280
     1
1000
auto
  0
XRECORD
  5
3783
102
{ACAD_REACTORS
330
3769
102
}
330
3769
100
AcDbXrecord
280
     1
1000
auto
  0
XRECORD
  5
3784
102
{ACAD_REACTORS
330
3769
102
}
330
3769
100
AcDbXrecord
280
     1
1000
auto
  0
XRECORD
  5
3785
102
{ACAD_REACTORS
330
3769
102
}
330
3769
100
AcDbXrecord
280
     1
1000
auto
  0
XRECORD
  5
3786
102
{ACAD_REACTORS
330
3769
102
}
330
3769
100
AcDbXrecord
280
     1
 90
        1
  0
XRECORD
  5
3787
102
{ACAD_REACTORS
330
3769
102
}
330
3769
100
AcDbXrecord
280
     1
 40
10.0
  0
XRECORD
  5
3788
102
{ACAD_REACTORS
330
3769
102
}
330
3769
100
AcDbXrecord
280
     1
 40
10.0
  0
XRECORD
  5
3789
102
{ACAD_REACTORS
330
3769
102
}
330
3769
100
AcDbXrecord
280
     1
 40
10.0
  0
XRECORD
  5
378A
102
{ACAD_REACTORS
330
3769
102
}
330
3769
100
AcDbXrecord
280
     1
 40
10.0
  0
XRECORD
  5
378B
102
{ACAD_REACTORS
330
3769
102
}
330
3769
100
AcDbXrecord
280
     1
290
     0
  0
XRECORD
  5
378C
102
{ACAD_REACTORS
330
3769
102
}
330
3769
100
AcDbXrecord
280
     1
 90
        1
  0
XRECORD
  5
378D
102
{ACAD_REACTORS
330
3769
102
}
330
3769
100
AcDbXrecord
280
     1
 40
0.0
  0
XRECORD
  5
378E
102
{ACAD_REACTORS
330
3769
102
}
330
3769
100
AcDbXrecord
280
     1
 40
0.0
  0
XRECORD
  5
378F
102
{ACAD_REACTORS
330
3769
102
}
330
3769
100
AcDbXrecord
280
     1
1000
Portrait
  0
XRECORD
  5
3790
102
{ACAD_REACTORS
330
3769
102
}
330
3769
100
AcDbXrecord
280
     1
 40
297.0
  0
XRECORD
  5
3791
102
{ACAD_REACTORS
330
3769
102
}
330
3769
100
AcDbXrecord
280
     1
 40
210.0
  0
XRECORD
  5
3792
102
{ACAD_REACTORS
330
3769
102
}
330
3769
100
AcDbXrecord
280
     1
1000
1:1
  0
XRECORD
  5
3793
102
{ACAD_REACTORS
330
3769
102
}
330
3769
100
AcDbXrecord
280
     1
290
     1
  0
XRECORD
  5
3794
102
{ACAD_REACTORS
330
3769
102
}
330
3769
100
AcDbXrecord
280
     1
 90
        4
  0
DICTIONARY
  5
37BC
330
372D
100
AcDbDictionary
280
     1
281
     1
  3
ACAD_XREC_ROUNDTRIP
360
37BD
  0
DICTIONARY
  5
37C2
330
3730
100
AcDbDictionary
280
     1
281
     1
  3
ACAD_XREC_ROUNDTRIP
360
37C3
  0
DICTIONARY
  5
37CA
330
3734
100
AcDbDictionary
280
     1
281
     1
  3
ACAD_XREC_ROUNDTRIP
360
37CB
  0
DICTIONARY
  5
37D2
330
3738
100
AcDbDictionary
280
     1
281
     1
  3
ACAD_XREC_ROUNDTRIP
360
37D3
  0
DICTIONARY
  5
37C6
330
3732
100
AcDbDictionary
280
     1
281
     1
  3
ACAD_XREC_ROUNDTRIP
360
37C7
  0
DICTIONARY
  5
37C8
330
3733
100
AcDbDictionary
280
     1
281
     1
  3
ACAD_XREC_ROUNDTRIP
360
37C9
  0
DICTIONARY
  5
37D8
330
373B
100
AcDbDictionary
280
     1
281
     1
  3
ACAD_XREC_ROUNDTRIP
360
37D9
  0
DICTIONARY
  5
37D0
330
3737
100
AcDbDictionary
280
     1
281
     1
  3
ACAD_XREC_ROUNDTRIP
360
37D1
  0
DICTIONARY
  5
37B4
330
3729
100
AcDbDictionary
280
     1
281
     1
  3
ACAD_XREC_ROUNDTRIP
360
37B5
  0
DICTIONARY
  5
37B6
330
372A
100
AcDbDictionary
280
     1
281
     1
  3
ACAD_XREC_ROUNDTRIP
360
37B7
  0
DICTIONARY
  5
37B8
330
372B
100
AcDbDictionary
280
     1
281
     1
  3
ACAD_XREC_ROUNDTRIP
360
37B9
  0
DICTIONARY
  5
37BA
330
372C
100
AcDbDictionary
280
     1
281
     1
  3
ACAD_XREC_ROUNDTRIP
360
37BB
  0
DICTIONARY
  5
37C0
330
372F
100
AcDbDictionary
280
     1
281
     1
  3
ACAD_XREC_ROUNDTRIP
360
37C1
  0
DICTIONARY
  5
37D4
330
3739
100
AcDbDictionary
280
     1
281
     1
  3
ACAD_XREC_ROUNDTRIP
360
37D5
  0
DICTIONARY
  5
37CE
330
3736
100
AcDbDictionary
280
     1
281
     1
  3
ACAD_XREC_ROUNDTRIP
360
37CF
  0
DICTIONARY
  5
37D6
330
373A
100
AcDbDictionary
280
     1
281
     1
  3
ACAD_XREC_ROUNDTRIP
360
37D7
  0
DICTIONARY
  5
37C4
330
3731
100
AcDbDictionary
280
     1
281
     1
  3
ACAD_XREC_ROUNDTRIP
360
37C5
  0
DICTIONARY
  5
37E2
330
3740
100
AcDbDictionary
280
     1
281
     1
  3
ACAD_XREC_ROUNDTRIP
360
37E3
  0
DICTIONARY
  5
37E0
330
373F
100
AcDbDictionary
280
     1
281
     1
  3
ACAD_XREC_ROUNDTRIP
360
37E1
  0
DICTIONARY
  5
37DA
330
373C
100
AcDbDictionary
280
     1
281
     1
  3
ACAD_XREC_ROUNDTRIP
360
37DB
  0
DICTIONARY
  5
37DC
330
373D
100
AcDbDictionary
280
     1
281
     1
  3
ACAD_XREC_ROUNDTRIP
360
37DD
  0
DICTIONARY
  5
37CC
330
3735
100
AcDbDictionary
280
     1
281
     1
  3
ACAD_XREC_ROUNDTRIP
360
37CD
  0
DICTIONARY
  5
37BE
330
372E
100
AcDbDictionary
280
     1
281
     1
  3
ACAD_XREC_ROUNDTRIP
360
37BF
  0
DICTIONARY
  5
37DE
330
373E
100
AcDbDictionary
280
     1
281
     1
  3
ACAD_XREC_ROUNDTRIP
360
37DF
  0
XRECORD
  5
37BD
102
{ACAD_REACTORS
330
37BC
102
}
330
37BC
100
AcDbXrecord
280
     1
102
RTVSPropertyOp0
 70
     1
102
RTVSPropertyOp1
 70
     1
102
RTVSPropertyOp2
 70
     1
102
RTVSPropertyOp3
 70
     1
102
RTVSPropertyOp4
 70
     1
102
RTVSPropertyOp5
 70
     1
102
RTVSPropertyOp6
 70
     1
102
RTVSPropertyOp7
 70
     1
102
RTVSPropertyOp8
 70
     1
102
RTVSPropertyOp9
 70
     1
102
RTVSPropertyOp10
 70
     1
102
RTVSPropertyOp11
 70
     1
102
RTVSPropertyOp12
 70
     1
102
RTVSPropertyOp13
 70
     1
102
RTVSPropertyOp14
 70
     1
102
RTVSPropertyOp15
 70
     1
102
RTVSPropertyOp16
 70
     1
102
RTVSPropertyOp17
 70
     1
102
RTVSPropertyOp18
 70
     1
102
RTVSPropertyOp19
 70
     1
102
RTVSPropertyOp20
 70
     1
102
RTVSPropertyOp21
 70
     1
102
RTVSPropertyOp22
 70
     1
102
RTVSPropertyOp23
 70
     1
102
RTVSPropertyOp24
 70
     1
102
RTVSPropertyOp25
 70
     1
102
RTVSPropertyOp26
 70
     1
102
RTVSPropertyOp27
 70
     1
102
RTVSPropertyOp28
 70
     1
102
RTVSPropertyOp29
 70
     1
102
RTVSPropertyOp30
 70
     1
102
RTVSPropertyOp31
 70
     1
102
RTVSPropertyOp32
 70
     1
102
RTVSPropertyOp33
 70
     1
102
RTVSPropertyOp34
 70
     1
102
RTVSPropertyOp35
 70
     1
102
RTVSPropertyOp36
 70
     1
102
RTVSPropertyOp37
 70
     1
102
RTVSPropertyOp38
 70
     1
102
RTVSPropertyOp39
 70
     1
102
RTVSPropertyOp40
 70
     1
102
RTVSPropertyOp41
 70
     1
102
RTVSPropertyOp42
 70
     1
102
RTVSPropertyOp43
 70
     1
102
RTVSPropertyOp44
 70
     1
102
RTVSPropertyOp45
 70
     1
102
RTVSPropertyOp46
 70
     1
102
RTVSPropertyOp47
 70
     1
102
RTVSPropertyOp48
 70
     1
102
RTVSPropertyOp49
 70
     1
102
RTVSPropertyOp50
 70
     1
102
RTVSPropertyOp51
 70
     0
102
RTVSPropertyOp52
 70
     0
102
RTVSPropertyOp53
 70
     1
102
RTVSPropertyOp54
 70
     1
102
RTVSPropertyOp55
 70
     1
102
RTVSPropertyOp56
 70
     1
102
RTVSPropertyOp57
 70
     1
102
RTVSPost2010Prop28
280
     1
102
RTVSPost2010PropOp28
 70
     1
102
RTVSPost2010Prop29
280
     1
102
RTVSPost2010PropOp29
 70
     1
102
RTVSPost2010Prop30
280
     0
102
RTVSPost2010PropOp30
 70
     1
102
RTVSPost2010Prop31
280
     0
102
RTVSPost2010PropOp31
 70
     1
102
RTVSPost2010Prop32
280
     0
102
RTVSPost2010PropOp32
 70
     1
102
RTVSPost2010Prop33
280
     0
102
RTVSPost2010PropOp33
 70
     1
102
RTVSPost2010Prop34
280
     0
102
RTVSPost2010PropOp34
 70
     1
102
RTVSPost2010Prop35
280
     0
102
RTVSPost2010PropOp35
 70
     1
102
RTVSPost2010Prop36
280
     0
102
RTVSPost2010PropOp36
 70
     1
102
RTVSPost2010Prop37
 90
       50
102
RTVSPost2010PropOp37
 70
     1
102
RTVSPost2010Prop38
140
0.0
102
RTVSPost2010PropOp38
 70
     1
102
RTVSPost2010Prop39
140
1.0
102
RTVSPost2010PropOp39
 70
     1
102
RTVSPost2010Prop40
 90
        0
102
RTVSPost2010PropOp40
 70
     1
102
RTVSPost2010Prop41ColorIndex
 90
       18
102
RTVSPost2010Prop41ColorRGB
 90
        0
102
RTVSPost2010PropOp41
 70
     1
102
RTVSPost2010Prop42
 90
       50
102
RTVSPost2010PropOp42
 70
     1
102
RTVSPost2010Prop43
 90
        3
102
RTVSPost2010PropOp43
 70
     1
102
RTVSPost2010Prop44ColorIndex
 90
        5
102
RTVSPost2010Prop44ColorRGB
 90
      255
102
RTVSPost2010PropOp44
 70
     1
102
RTVSPost2010Prop45
280
     0
102
RTVSPost2010PropOp45
 70
     1
102
RTVSPost2010Prop46
 90
       50
102
RTVSPost2010PropOp46
 70
     1
102
RTVSPost2010Prop47
 90
       50
102
RTVSPost2010PropOp47
 70
     1
102
RTVSPost2010Prop48
 90
       50
102
RTVSPost2010PropOp48
 70
     1
102
RTVSPost2010Prop49
280
     0
102
RTVSPost2010PropOp49
 70
     1
102
RTVSPost2010Prop50
 90
       50
102
RTVSPost2010PropOp50
 70
     1
102
RTVSPost2010Prop51ColorIndex
 90
      256
102
RTVSPost2010Prop51ColorRGB
 90
-16777216
102
RTVSPost2010PropOp51
 70
     0
102
RTVSPost2010Prop52
140
1.0
102
RTVSPost2010PropOp52
 70
     0
102
RTVSPost2010Prop53
 90
        2
102
RTVSPost2010PropOp53
 70
     1
102
RTVSPost2010Prop54
  1
strokes_ogs.tif
102
RTVSPost2010PropOp54
 70
     1
102
RTVSPost2010Prop55
280
     0
102
RTVSPost2010PropOp55
 70
     1
102
RTVSPost2010Prop56
140
1.0
102
RTVSPost2010PropOp56
 70
     1
102
RTVSPost2010Prop57
140
1.0
102
RTVSPost2010PropOp57
 70
     1
  0
XRECORD
  5
37C3
102
{ACAD_REACTORS
330
37C2
102
}
330
37C2
100
AcDbXrecord
280
     1
102
RTVSPropertyOp0
 70
     1
102
RTVSPropertyOp1
 70
     1
102
RTVSPropertyOp2
 70
     1
102
RTVSPropertyOp3
 70
     1
102
RTVSPropertyOp4
 70
     1
102
RTVSPropertyOp5
 70
     1
102
RTVSPropertyOp6
 70
     1
102
RTVSPropertyOp7
 70
     1
102
RTVSPropertyOp8
 70
     1
102
RTVSPropertyOp9
 70
     1
102
RTVSPropertyOp10
 70
     1
102
RTVSPropertyOp11
 70
     1
102
RTVSPropertyOp12
 70
     1
102
RTVSPropertyOp13
 70
     1
102
RTVSPropertyOp14
 70
     1
102
RTVSPropertyOp15
 70
     1
102
RTVSPropertyOp16
 70
     1
102
RTVSPropertyOp17
 70
     1
102
RTVSPropertyOp18
 70
     1
102
RTVSPropertyOp19
 70
     1
102
RTVSPropertyOp20
 70
     1
102
RTVSPropertyOp21
 70
     1
102
RTVSPropertyOp22
 70
     1
102
RTVSPropertyOp23
 70
     1
102
RTVSPropertyOp24
 70
     1
102
RTVSPropertyOp25
 70
     1
102
RTVSPropertyOp26
 70
     1
102
RTVSPropertyOp27
 70
     1
102
RTVSPropertyOp28
 70
     1
102
RTVSPropertyOp29
 70
     1
102
RTVSPropertyOp30
 70
     1
102
RTVSPropertyOp31
 70
     1
102
RTVSPropertyOp32
 70
     1
102
RTVSPropertyOp33
 70
     1
102
RTVSPropertyOp34
 70
     1
102
RTVSPropertyOp35
 70
     1
102
RTVSPropertyOp36
 70
     1
102
RTVSPropertyOp37
 70
     1
102
RTVSPropertyOp38
 70
     1
102
RTVSPropertyOp39
 70
     1
102
RTVSPropertyOp40
 70
     1
102
RTVSPropertyOp41
 70
     1
102
RTVSPropertyOp42
 70
     1
102
RTVSPropertyOp43
 70
     1
102
RTVSPropertyOp44
 70
     1
102
RTVSPropertyOp45
 70
     1
102
RTVSPropertyOp46
 70
     1
102
RTVSPropertyOp47
 70
     1
102
RTVSPropertyOp48
 70
     1
102
RTVSPropertyOp49
 70
     1
102
RTVSPropertyOp50
 70
     1
102
RTVSPropertyOp51
 70
     0
102
RTVSPropertyOp52
 70
     0
102
RTVSPropertyOp53
 70
     1
102
RTVSPropertyOp54
 70
     1
102
RTVSPropertyOp55
 70
     1
102
RTVSPropertyOp56
 70
     1
102
RTVSPropertyOp57
 70
     1
102
RTVSPost2010Prop28
280
     0
102
RTVSPost2010PropOp28
 70
     1
102
RTVSPost2010Prop29
280
     1
102
RTVSPost2010PropOp29
 70
     1
102
RTVSPost2010Prop30
280
     1
102
RTVSPost2010PropOp30
 70
     1
102
RTVSPost2010Prop31
280
     0
102
RTVSPost2010PropOp31
 70
     1
102
RTVSPost2010Prop32
280
     0
102
RTVSPost2010PropOp32
 70
     1
102
RTVSPost2010Prop33
280
     0
102
RTVSPost2010PropOp33
 70
     1
102
RTVSPost2010Prop34
280
     0
102
RTVSPost2010PropOp34
 70
     1
102
RTVSPost2010Prop35
280
     0
102
RTVSPost2010PropOp35
 70
     1
102
RTVSPost2010Prop36
280
     0
102
RTVSPost2010PropOp36
 70
     1
102
RTVSPost2010Prop37
 90
       50
102
RTVSPost2010PropOp37
 70
     1
102
RTVSPost2010Prop38
140
0.0
102
RTVSPost2010PropOp38
 70
     1
102
RTVSPost2010Prop39
140
1.0
102
RTVSPost2010PropOp39
 70
     1
102
RTVSPost2010Prop40
 90
        0
102
RTVSPost2010PropOp40
 70
     1
102
RTVSPost2010Prop41ColorIndex
 90
       18
102
RTVSPost2010Prop41ColorRGB
 90
        0
102
RTVSPost2010PropOp41
 70
     1
102
RTVSPost2010Prop42
 90
       50
102
RTVSPost2010PropOp42
 70
     1
102
RTVSPost2010Prop43
 90
        3
102
RTVSPost2010PropOp43
 70
     1
102
RTVSPost2010Prop44ColorIndex
 90
        5
102
RTVSPost2010Prop44ColorRGB
 90
      255
102
RTVSPost2010PropOp44
 70
     1
102
RTVSPost2010Prop45
280
     0
102
RTVSPost2010PropOp45
 70
     1
102
RTVSPost2010Prop46
 90
       50
102
RTVSPost2010PropOp46
 70
     1
102
RTVSPost2010Prop47
 90
       50
102
RTVSPost2010PropOp47
 70
     1
102
RTVSPost2010Prop48
 90
       50
102
RTVSPost2010PropOp48
 70
     1
102
RTVSPost2010Prop49
280
     0
102
RTVSPost2010PropOp49
 70
     1
102
RTVSPost2010Prop50
 90
       50
102
RTVSPost2010PropOp50
 70
     1
102
RTVSPost2010Prop51ColorIndex
 90
      256
102
RTVSPost2010Prop51ColorRGB
 90
-16777216
102
RTVSPost2010PropOp51
 70
     0
102
RTVSPost2010Prop52
140
1.0
102
RTVSPost2010PropOp52
 70
     0
102
RTVSPost2010Prop53
 90
        2
102
RTVSPost2010PropOp53
 70
     1
102
RTVSPost2010Prop54
  1
strokes_ogs.tif
102
RTVSPost2010PropOp54
 70
     1
102
RTVSPost2010Prop55
280
     0
102
RTVSPost2010PropOp55
 70
     1
102
RTVSPost2010Prop56
140
1.0
102
RTVSPost2010PropOp56
 70
     1
102
RTVSPost2010Prop57
140
1.0
102
RTVSPost2010PropOp57
 70
     1
  0
XRECORD
  5
37CB
102
{ACAD_REACTORS
330
37CA
102
}
330
37CA
100
AcDbXrecord
280
     1
102
RTVSPropertyOp0
 70
     1
102
RTVSPropertyOp1
 70
     1
102
RTVSPropertyOp2
 70
     1
102
RTVSPropertyOp3
 70
     1
102
RTVSPropertyOp4
 70
     1
102
RTVSPropertyOp5
 70
     1
102
RTVSPropertyOp6
 70
     1
102
RTVSPropertyOp7
 70
     1
102
RTVSPropertyOp8
 70
     1
102
RTVSPropertyOp9
 70
     1
102
RTVSPropertyOp10
 70
     1
102
RTVSPropertyOp11
 70
     1
102
RTVSPropertyOp12
 70
     1
102
RTVSPropertyOp13
 70
     1
102
RTVSPropertyOp14
 70
     1
102
RTVSPropertyOp15
 70
     1
102
RTVSPropertyOp16
 70
     1
102
RTVSPropertyOp17
 70
     1
102
RTVSPropertyOp18
 70
     1
102
RTVSPropertyOp19
 70
     1
102
RTVSPropertyOp20
 70
     1
102
RTVSPropertyOp21
 70
     1
102
RTVSPropertyOp22
 70
     1
102
RTVSPropertyOp23
 70
     1
102
RTVSPropertyOp24
 70
     1
102
RTVSPropertyOp25
 70
     1
102
RTVSPropertyOp26
 70
     1
102
RTVSPropertyOp27
 70
     1
102
RTVSPropertyOp28
 70
     1
102
RTVSPropertyOp29
 70
     1
102
RTVSPropertyOp30
 70
     1
102
RTVSPropertyOp31
 70
     1
102
RTVSPropertyOp32
 70
     1
102
RTVSPropertyOp33
 70
     1
102
RTVSPropertyOp34
 70
     1
102
RTVSPropertyOp35
 70
     1
102
RTVSPropertyOp36
 70
     1
102
RTVSPropertyOp37
 70
     1
102
RTVSPropertyOp38
 70
     1
102
RTVSPropertyOp39
 70
     1
102
RTVSPropertyOp40
 70
     1
102
RTVSPropertyOp41
 70
     1
102
RTVSPropertyOp42
 70
     1
102
RTVSPropertyOp43
 70
     1
102
RTVSPropertyOp44
 70
     1
102
RTVSPropertyOp45
 70
     1
102
RTVSPropertyOp46
 70
     1
102
RTVSPropertyOp47
 70
     1
102
RTVSPropertyOp48
 70
     1
102
RTVSPropertyOp49
 70
     1
102
RTVSPropertyOp50
 70
     1
102
RTVSPropertyOp51
 70
     0
102
RTVSPropertyOp52
 70
     0
102
RTVSPropertyOp53
 70
     1
102
RTVSPropertyOp54
 70
     1
102
RTVSPropertyOp55
 70
     1
102
RTVSPropertyOp56
 70
     1
102
RTVSPropertyOp57
 70
     1
102
RTVSPost2010Prop28
280
     0
102
RTVSPost2010PropOp28
 70
     1
102
RTVSPost2010Prop29
280
     1
102
RTVSPost2010PropOp29
 70
     1
102
RTVSPost2010Prop30
280
     1
102
RTVSPost2010PropOp30
 70
     1
102
RTVSPost2010Prop31
280
     0
102
RTVSPost2010PropOp31
 70
     1
102
RTVSPost2010Prop32
280
     0
102
RTVSPost2010PropOp32
 70
     1
102
RTVSPost2010Prop33
280
     0
102
RTVSPost2010PropOp33
 70
     1
102
RTVSPost2010Prop34
280
     0
102
RTVSPost2010PropOp34
 70
     1
102
RTVSPost2010Prop35
280
     0
102
RTVSPost2010PropOp35
 70
     1
102
RTVSPost2010Prop36
280
     0
102
RTVSPost2010PropOp36
 70
     1
102
RTVSPost2010Prop37
 90
       50
102
RTVSPost2010PropOp37
 70
     1
102
RTVSPost2010Prop38
140
0.0
102
RTVSPost2010PropOp38
 70
     1
102
RTVSPost2010Prop39
140
1.0
102
RTVSPost2010PropOp39
 70
     1
102
RTVSPost2010Prop40
 90
        0
102
RTVSPost2010PropOp40
 70
     1
102
RTVSPost2010Prop41ColorIndex
 90
       18
102
RTVSPost2010Prop41ColorRGB
 90
        0
102
RTVSPost2010PropOp41
 70
     1
102
RTVSPost2010Prop42
 90
       50
102
RTVSPost2010PropOp42
 70
     1
102
RTVSPost2010Prop43
 90
        3
102
RTVSPost2010PropOp43
 70
     1
102
RTVSPost2010Prop44ColorIndex
 90
        5
102
RTVSPost2010Prop44ColorRGB
 90
      255
102
RTVSPost2010PropOp44
 70
     1
102
RTVSPost2010Prop45
280
     0
102
RTVSPost2010PropOp45
 70
     1
102
RTVSPost2010Prop46
 90
       50
102
RTVSPost2010PropOp46
 70
     1
102
RTVSPost2010Prop47
 90
       50
102
RTVSPost2010PropOp47
 70
     1
102
RTVSPost2010Prop48
 90
       50
102
RTVSPost2010PropOp48
 70
     1
102
RTVSPost2010Prop49
280
     0
102
RTVSPost2010PropOp49
 70
     1
102
RTVSPost2010Prop50
 90
       50
102
RTVSPost2010PropOp50
 70
     1
102
RTVSPost2010Prop51ColorIndex
 90
      256
102
RTVSPost2010Prop51ColorRGB
 90
-16777216
102
RTVSPost2010PropOp51
 70
     0
102
RTVSPost2010Prop52
140
1.0
102
RTVSPost2010PropOp52
 70
     0
102
RTVSPost2010Prop53
 90
        2
102
RTVSPost2010PropOp53
 70
     1
102
RTVSPost2010Prop54
  1
strokes_ogs.tif
102
RTVSPost2010PropOp54
 70
     1
102
RTVSPost2010Prop55
280
     0
102
RTVSPost2010PropOp55
 70
     1
102
RTVSPost2010Prop56
140
1.0
102
RTVSPost2010PropOp56
 70
     1
102
RTVSPost2010Prop57
140
1.0
102
RTVSPost2010PropOp57
 70
     1
  0
XRECORD
  5
37D3
102
{ACAD_REACTORS
330
37D2
102
}
330
37D2
100
AcDbXrecord
280
     1
102
RTVSPropertyOp0
 70
     1
102
RTVSPropertyOp1
 70
     1
102
RTVSPropertyOp2
 70
     1
102
RTVSPropertyOp3
 70
     1
102
RTVSPropertyOp4
 70
     1
102
RTVSPropertyOp5
 70
     1
102
RTVSPropertyOp6
 70
     1
102
RTVSPropertyOp7
 70
     1
102
RTVSPropertyOp8
 70
     1
102
RTVSPropertyOp9
 70
     1
102
RTVSPropertyOp10
 70
     1
102
RTVSPropertyOp11
 70
     1
102
RTVSPropertyOp12
 70
     1
102
RTVSPropertyOp13
 70
     1
102
RTVSPropertyOp14
 70
     1
102
RTVSPropertyOp15
 70
     1
102
RTVSPropertyOp16
 70
     1
102
RTVSPropertyOp17
 70
     1
102
RTVSPropertyOp18
 70
     1
102
RTVSPropertyOp19
 70
     1
102
RTVSPropertyOp20
 70
     1
102
RTVSPropertyOp21
 70
     1
102
RTVSPropertyOp22
 70
     1
102
RTVSPropertyOp23
 70
     1
102
RTVSPropertyOp24
 70
     1
102
RTVSPropertyOp25
 70
     1
102
RTVSPropertyOp26
 70
     1
102
RTVSPropertyOp27
 70
     1
102
RTVSPropertyOp28
 70
     1
102
RTVSPropertyOp29
 70
     1
102
RTVSPropertyOp30
 70
     1
102
RTVSPropertyOp31
 70
     1
102
RTVSPropertyOp32
 70
     1
102
RTVSPropertyOp33
 70
     1
102
RTVSPropertyOp34
 70
     1
102
RTVSPropertyOp35
 70
     1
102
RTVSPropertyOp36
 70
     1
102
RTVSPropertyOp37
 70
     1
102
RTVSPropertyOp38
 70
     1
102
RTVSPropertyOp39
 70
     1
102
RTVSPropertyOp40
 70
     1
102
RTVSPropertyOp41
 70
     1
102
RTVSPropertyOp42
 70
     1
102
RTVSPropertyOp43
 70
     1
102
RTVSPropertyOp44
 70
     1
102
RTVSPropertyOp45
 70
     1
102
RTVSPropertyOp46
 70
     1
102
RTVSPropertyOp47
 70
     1
102
RTVSPropertyOp48
 70
     1
102
RTVSPropertyOp49
 70
     1
102
RTVSPropertyOp50
 70
     1
102
RTVSPropertyOp51
 70
     0
102
RTVSPropertyOp52
 70
     0
102
RTVSPropertyOp53
 70
     1
102
RTVSPropertyOp54
 70
     1
102
RTVSPropertyOp55
 70
     1
102
RTVSPropertyOp56
 70
     1
102
RTVSPropertyOp57
 70
     1
102
RTVSPost2010Prop28
280
     0
102
RTVSPost2010PropOp28
 70
     1
102
RTVSPost2010Prop29
280
     1
102
RTVSPost2010PropOp29
 70
     1
102
RTVSPost2010Prop30
280
     1
102
RTVSPost2010PropOp30
 70
     1
102
RTVSPost2010Prop31
280
     0
102
RTVSPost2010PropOp31
 70
     1
102
RTVSPost2010Prop32
280
     0
102
RTVSPost2010PropOp32
 70
     1
102
RTVSPost2010Prop33
280
     0
102
RTVSPost2010PropOp33
 70
     1
102
RTVSPost2010Prop34
280
     0
102
RTVSPost2010PropOp34
 70
     1
102
RTVSPost2010Prop35
280
     0
102
RTVSPost2010PropOp35
 70
     1
102
RTVSPost2010Prop36
280
     0
102
RTVSPost2010PropOp36
 70
     1
102
RTVSPost2010Prop37
 90
       50
102
RTVSPost2010PropOp37
 70
     1
102
RTVSPost2010Prop38
140
0.0
102
RTVSPost2010PropOp38
 70
     1
102
RTVSPost2010Prop39
140
1.0
102
RTVSPost2010PropOp39
 70
     1
102
RTVSPost2010Prop40
 90
        0
102
RTVSPost2010PropOp40
 70
     1
102
RTVSPost2010Prop41ColorIndex
 90
       18
102
RTVSPost2010Prop41ColorRGB
 90
        0
102
RTVSPost2010PropOp41
 70
     1
102
RTVSPost2010Prop42
 90
       50
102
RTVSPost2010PropOp42
 70
     1
102
RTVSPost2010Prop43
 90
        3
102
RTVSPost2010PropOp43
 70
     1
102
RTVSPost2010Prop44ColorIndex
 90
        5
102
RTVSPost2010Prop44ColorRGB
 90
      255
102
RTVSPost2010PropOp44
 70
     1
102
RTVSPost2010Prop45
280
     0
102
RTVSPost2010PropOp45
 70
     1
102
RTVSPost2010Prop46
 90
       50
102
RTVSPost2010PropOp46
 70
     1
102
RTVSPost2010Prop47
 90
       50
102
RTVSPost2010PropOp47
 70
     1
102
RTVSPost2010Prop48
 90
       50
102
RTVSPost2010PropOp48
 70
     1
102
RTVSPost2010Prop49
280
     0
102
RTVSPost2010PropOp49
 70
     1
102
RTVSPost2010Prop50
 90
       50
102
RTVSPost2010PropOp50
 70
     1
102
RTVSPost2010Prop51ColorIndex
 90
      256
102
RTVSPost2010Prop51ColorRGB
 90
-16777216
102
RTVSPost2010PropOp51
 70
     0
102
RTVSPost2010Prop52
140
1.0
102
RTVSPost2010PropOp52
 70
     0
102
RTVSPost2010Prop53
 90
        2
102
RTVSPost2010PropOp53
 70
     1
102
RTVSPost2010Prop54
  1
strokes_ogs.tif
102
RTVSPost2010PropOp54
 70
     1
102
RTVSPost2010Prop55
280
     0
102
RTVSPost2010PropOp55
 70
     1
102
RTVSPost2010Prop56
140
1.0
102
RTVSPost2010PropOp56
 70
     1
102
RTVSPost2010Prop57
140
1.0
102
RTVSPost2010PropOp57
 70
     1
  0
XRECORD
  5
37C7
102
{ACAD_REACTORS
330
37C6
102
}
330
37C6
100
AcDbXrecord
280
     1
102
RTVSPropertyOp0
 70
     1
102
RTVSPropertyOp1
 70
     1
102
RTVSPropertyOp2
 70
     1
102
RTVSPropertyOp3
 70
     1
102
RTVSPropertyOp4
 70
     1
102
RTVSPropertyOp5
 70
     1
102
RTVSPropertyOp6
 70
     1
102
RTVSPropertyOp7
 70
     1
102
RTVSPropertyOp8
 70
     1
102
RTVSPropertyOp9
 70
     1
102
RTVSPropertyOp10
 70
     1
102
RTVSPropertyOp11
 70
     1
102
RTVSPropertyOp12
 70
     1
102
RTVSPropertyOp13
 70
     1
102
RTVSPropertyOp14
 70
     1
102
RTVSPropertyOp15
 70
     1
102
RTVSPropertyOp16
 70
     1
102
RTVSPropertyOp17
 70
     1
102
RTVSPropertyOp18
 70
     1
102
RTVSPropertyOp19
 70
     1
102
RTVSPropertyOp20
 70
     1
102
RTVSPropertyOp21
 70
     1
102
RTVSPropertyOp22
 70
     1
102
RTVSPropertyOp23
 70
     1
102
RTVSPropertyOp24
 70
     1
102
RTVSPropertyOp25
 70
     1
102
RTVSPropertyOp26
 70
     1
102
RTVSPropertyOp27
 70
     1
102
RTVSPropertyOp28
 70
     1
102
RTVSPropertyOp29
 70
     1
102
RTVSPropertyOp30
 70
     1
102
RTVSPropertyOp31
 70
     1
102
RTVSPropertyOp32
 70
     1
102
RTVSPropertyOp33
 70
     1
102
RTVSPropertyOp34
 70
     1
102
RTVSPropertyOp35
 70
     1
102
RTVSPropertyOp36
 70
     1
102
RTVSPropertyOp37
 70
     1
102
RTVSPropertyOp38
 70
     1
102
RTVSPropertyOp39
 70
     1
102
RTVSPropertyOp40
 70
     1
102
RTVSPropertyOp41
 70
     1
102
RTVSPropertyOp42
 70
     1
102
RTVSPropertyOp43
 70
     1
102
RTVSPropertyOp44
 70
     1
102
RTVSPropertyOp45
 70
     1
102
RTVSPropertyOp46
 70
     1
102
RTVSPropertyOp47
 70
     1
102
RTVSPropertyOp48
 70
     1
102
RTVSPropertyOp49
 70
     1
102
RTVSPropertyOp50
 70
     1
102
RTVSPropertyOp51
 70
     0
102
RTVSPropertyOp52
 70
     0
102
RTVSPropertyOp53
 70
     1
102
RTVSPropertyOp54
 70
     1
102
RTVSPropertyOp55
 70
     1
102
RTVSPropertyOp56
 70
     1
102
RTVSPropertyOp57
 70
     1
102
RTVSPost2010Prop28
280
     0
102
RTVSPost2010PropOp28
 70
     1
102
RTVSPost2010Prop29
280
     1
102
RTVSPost2010PropOp29
 70
     1
102
RTVSPost2010Prop30
280
     1
102
RTVSPost2010PropOp30
 70
     1
102
RTVSPost2010Prop31
280
     0
102
RTVSPost2010PropOp31
 70
     1
102
RTVSPost2010Prop32
280
     0
102
RTVSPost2010PropOp32
 70
     1
102
RTVSPost2010Prop33
280
     0
102
RTVSPost2010PropOp33
 70
     1
102
RTVSPost2010Prop34
280
     0
102
RTVSPost2010PropOp34
 70
     1
102
RTVSPost2010Prop35
280
     0
102
RTVSPost2010PropOp35
 70
     1
102
RTVSPost2010Prop36
280
     0
102
RTVSPost2010PropOp36
 70
     1
102
RTVSPost2010Prop37
 90
       50
102
RTVSPost2010PropOp37
 70
     1
102
RTVSPost2010Prop38
140
0.0
102
RTVSPost2010PropOp38
 70
     1
102
RTVSPost2010Prop39
140
1.0
102
RTVSPost2010PropOp39
 70
     1
102
RTVSPost2010Prop40
 90
        0
102
RTVSPost2010PropOp40
 70
     1
102
RTVSPost2010Prop41ColorIndex
 90
       18
102
RTVSPost2010Prop41ColorRGB
 90
        0
102
RTVSPost2010PropOp41
 70
     1
102
RTVSPost2010Prop42
 90
       50
102
RTVSPost2010PropOp42
 70
     1
102
RTVSPost2010Prop43
 90
        3
102
RTVSPost2010PropOp43
 70
     1
102
RTVSPost2010Prop44ColorIndex
 90
        5
102
RTVSPost2010Prop44ColorRGB
 90
      255
102
RTVSPost2010PropOp44
 70
     1
102
RTVSPost2010Prop45
280
     0
102
RTVSPost2010PropOp45
 70
     1
102
RTVSPost2010Prop46
 90
       50
102
RTVSPost2010PropOp46
 70
     1
102
RTVSPost2010Prop47
 90
       50
102
RTVSPost2010PropOp47
 70
     1
102
RTVSPost2010Prop48
 90
       50
102
RTVSPost2010PropOp48
 70
     1
102
RTVSPost2010Prop49
280
     0
102
RTVSPost2010PropOp49
 70
     1
102
RTVSPost2010Prop50
 90
       50
102
RTVSPost2010PropOp50
 70
     1
102
RTVSPost2010Prop51ColorIndex
 90
      256
102
RTVSPost2010Prop51ColorRGB
 90
-16777216
102
RTVSPost2010PropOp51
 70
     0
102
RTVSPost2010Prop52
140
1.0
102
RTVSPost2010PropOp52
 70
     0
102
RTVSPost2010Prop53
 90
        2
102
RTVSPost2010PropOp53
 70
     1
102
RTVSPost2010Prop54
  1
strokes_ogs.tif
102
RTVSPost2010PropOp54
 70
     1
102
RTVSPost2010Prop55
280
     0
102
RTVSPost2010PropOp55
 70
     1
102
RTVSPost2010Prop56
140
1.0
102
RTVSPost2010PropOp56
 70
     1
102
RTVSPost2010Prop57
140
1.0
102
RTVSPost2010PropOp57
 70
     1
  0
XRECORD
  5
37C9
102
{ACAD_REACTORS
330
37C8
102
}
330
37C8
100
AcDbXrecord
280
     1
102
RTVSPropertyOp0
 70
     1
102
RTVSPropertyOp1
 70
     1
102
RTVSPropertyOp2
 70
     1
102
RTVSPropertyOp3
 70
     1
102
RTVSPropertyOp4
 70
     1
102
RTVSPropertyOp5
 70
     1
102
RTVSPropertyOp6
 70
     1
102
RTVSPropertyOp7
 70
     1
102
RTVSPropertyOp8
 70
     1
102
RTVSPropertyOp9
 70
     1
102
RTVSPropertyOp10
 70
     1
102
RTVSPropertyOp11
 70
     1
102
RTVSPropertyOp12
 70
     1
102
RTVSPropertyOp13
 70
     1
102
RTVSPropertyOp14
 70
     1
102
RTVSPropertyOp15
 70
     1
102
RTVSPropertyOp16
 70
     1
102
RTVSPropertyOp17
 70
     1
102
RTVSPropertyOp18
 70
     1
102
RTVSPropertyOp19
 70
     1
102
RTVSPropertyOp20
 70
     1
102
RTVSPropertyOp21
 70
     1
102
RTVSPropertyOp22
 70
     1
102
RTVSPropertyOp23
 70
     1
102
RTVSPropertyOp24
 70
     1
102
RTVSPropertyOp25
 70
     1
102
RTVSPropertyOp26
 70
     1
102
RTVSPropertyOp27
 70
     1
102
RTVSPropertyOp28
 70
     1
102
RTVSPropertyOp29
 70
     1
102
RTVSPropertyOp30
 70
     1
102
RTVSPropertyOp31
 70
     1
102
RTVSPropertyOp32
 70
     1
102
RTVSPropertyOp33
 70
     1
102
RTVSPropertyOp34
 70
     1
102
RTVSPropertyOp35
 70
     1
102
RTVSPropertyOp36
 70
     1
102
RTVSPropertyOp37
 70
     1
102
RTVSPropertyOp38
 70
     1
102
RTVSPropertyOp39
 70
     1
102
RTVSPropertyOp40
 70
     1
102
RTVSPropertyOp41
 70
     1
102
RTVSPropertyOp42
 70
     1
102
RTVSPropertyOp43
 70
     1
102
RTVSPropertyOp44
 70
     1
102
RTVSPropertyOp45
 70
     1
102
RTVSPropertyOp46
 70
     1
102
RTVSPropertyOp47
 70
     1
102
RTVSPropertyOp48
 70
     1
102
RTVSPropertyOp49
 70
     1
102
RTVSPropertyOp50
 70
     1
102
RTVSPropertyOp51
 70
     0
102
RTVSPropertyOp52
 70
     0
102
RTVSPropertyOp53
 70
     1
102
RTVSPropertyOp54
 70
     1
102
RTVSPropertyOp55
 70
     1
102
RTVSPropertyOp56
 70
     1
102
RTVSPropertyOp57
 70
     1
102
RTVSPost2010Prop28
280
     0
102
RTVSPost2010PropOp28
 70
     1
102
RTVSPost2010Prop29
280
     1
102
RTVSPost2010PropOp29
 70
     1
102
RTVSPost2010Prop30
280
     1
102
RTVSPost2010PropOp30
 70
     1
102
RTVSPost2010Prop31
280
     0
102
RTVSPost2010PropOp31
 70
     1
102
RTVSPost2010Prop32
280
     0
102
RTVSPost2010PropOp32
 70
     1
102
RTVSPost2010Prop33
280
     0
102
RTVSPost2010PropOp33
 70
     1
102
RTVSPost2010Prop34
280
     0
102
RTVSPost2010PropOp34
 70
     1
102
RTVSPost2010Prop35
280
     0
102
RTVSPost2010PropOp35
 70
     1
102
RTVSPost2010Prop36
280
     0
102
RTVSPost2010PropOp36
 70
     1
102
RTVSPost2010Prop37
 90
       50
102
RTVSPost2010PropOp37
 70
     1
102
RTVSPost2010Prop38
140
0.0
102
RTVSPost2010PropOp38
 70
     1
102
RTVSPost2010Prop39
140
1.0
102
RTVSPost2010PropOp39
 70
     1
102
RTVSPost2010Prop40
 90
        0
102
RTVSPost2010PropOp40
 70
     1
102
RTVSPost2010Prop41ColorIndex
 90
       18
102
RTVSPost2010Prop41ColorRGB
 90
        0
102
RTVSPost2010PropOp41
 70
     1
102
RTVSPost2010Prop42
 90
       50
102
RTVSPost2010PropOp42
 70
     1
102
RTVSPost2010Prop43
 90
        3
102
RTVSPost2010PropOp43
 70
     1
102
RTVSPost2010Prop44ColorIndex
 90
        5
102
RTVSPost2010Prop44ColorRGB
 90
      255
102
RTVSPost2010PropOp44
 70
     1
102
RTVSPost2010Prop45
280
     0
102
RTVSPost2010PropOp45
 70
     1
102
RTVSPost2010Prop46
 90
       50
102
RTVSPost2010PropOp46
 70
     1
102
RTVSPost2010Prop47
 90
       50
102
RTVSPost2010PropOp47
 70
     1
102
RTVSPost2010Prop48
 90
       50
102
RTVSPost2010PropOp48
 70
     1
102
RTVSPost2010Prop49
280
     0
102
RTVSPost2010PropOp49
 70
     1
102
RTVSPost2010Prop50
 90
       50
102
RTVSPost2010PropOp50
 70
     1
102
RTVSPost2010Prop51ColorIndex
 90
      256
102
RTVSPost2010Prop51ColorRGB
 90
-16777216
102
RTVSPost2010PropOp51
 70
     0
102
RTVSPost2010Prop52
140
1.0
102
RTVSPost2010PropOp52
 70
     0
102
RTVSPost2010Prop53
 90
        2
102
RTVSPost2010PropOp53
 70
     1
102
RTVSPost2010Prop54
  1
strokes_ogs.tif
102
RTVSPost2010PropOp54
 70
     1
102
RTVSPost2010Prop55
280
     0
102
RTVSPost2010PropOp55
 70
     1
102
RTVSPost2010Prop56
140
1.0
102
RTVSPost2010PropOp56
 70
     1
102
RTVSPost2010Prop57
140
1.0
102
RTVSPost2010PropOp57
 70
     1
  0
XRECORD
  5
37D9
102
{ACAD_REACTORS
330
37D8
102
}
330
37D8
100
AcDbXrecord
280
     1
102
RTVSPropertyOp0
 70
     0
102
RTVSPropertyOp1
 70
     0
102
RTVSPropertyOp2
 70
     0
102
RTVSPropertyOp3
 70
     0
102
RTVSPropertyOp4
 70
     0
102
RTVSPropertyOp5
 70
     0
102
RTVSPropertyOp6
 70
     0
102
RTVSPropertyOp7
 70
     0
102
RTVSPropertyOp8
 70
     0
102
RTVSPropertyOp9
 70
     0
102
RTVSPropertyOp10
 70
     0
102
RTVSPropertyOp11
 70
     0
102
RTVSPropertyOp12
 70
     0
102
RTVSPropertyOp13
 70
     0
102
RTVSPropertyOp14
 70
     2
102
RTVSPropertyOp15
 70
     0
102
RTVSPropertyOp16
 70
     0
102
RTVSPropertyOp17
 70
     0
102
RTVSPropertyOp18
 70
     0
102
RTVSPropertyOp19
 70
     0
102
RTVSPropertyOp20
 70
     0
102
RTVSPropertyOp21
 70
     0
102
RTVSPropertyOp22
 70
     0
102
RTVSPropertyOp23
 70
     0
102
RTVSPropertyOp24
 70
     0
102
RTVSPropertyOp25
 70
     0
102
RTVSPropertyOp26
 70
     0
102
RTVSPropertyOp27
 70
     0
102
RTVSPropertyOp28
 70
     0
102
RTVSPropertyOp29
 70
     0
102
RTVSPropertyOp30
 70
     0
102
RTVSPropertyOp31
 70
     0
102
RTVSPropertyOp32
 70
     0
102
RTVSPropertyOp33
 70
     0
102
RTVSPropertyOp34
 70
     0
102
RTVSPropertyOp35
 70
     0
102
RTVSPropertyOp36
 70
     0
102
RTVSPropertyOp37
 70
     0
102
RTVSPropertyOp38
 70
     0
102
RTVSPropertyOp39
 70
     0
102
RTVSPropertyOp40
 70
     0
102
RTVSPropertyOp41
 70
     0
102
RTVSPropertyOp42
 70
     0
102
RTVSPropertyOp43
 70
     0
102
RTVSPropertyOp44
 70
     0
102
RTVSPropertyOp45
 70
     0
102
RTVSPropertyOp46
 70
     0
102
RTVSPropertyOp47
 70
     0
102
RTVSPropertyOp48
 70
     0
102
RTVSPropertyOp49
 70
     0
102
RTVSPropertyOp50
 70
     0
102
RTVSPropertyOp51
 70
     0
102
RTVSPropertyOp52
 70
     0
102
RTVSPropertyOp53
 70
     0
102
RTVSPropertyOp54
 70
     0
102
RTVSPropertyOp55
 70
     0
102
RTVSPropertyOp56
 70
     0
102
RTVSPropertyOp57
 70
     0
102
RTVSPost2010Prop28
280
     0
102
RTVSPost2010PropOp28
 70
     0
102
RTVSPost2010Prop29
280
     1
102
RTVSPost2010PropOp29
 70
     0
102
RTVSPost2010Prop30
280
     1
102
RTVSPost2010PropOp30
 70
     0
102
RTVSPost2010Prop31
280
     0
102
RTVSPost2010PropOp31
 70
     0
102
RTVSPost2010Prop32
280
     0
102
RTVSPost2010PropOp32
 70
     0
102
RTVSPost2010Prop33
280
     0
102
RTVSPost2010PropOp33
 70
     0
102
RTVSPost2010Prop34
280
     0
102
RTVSPost2010PropOp34
 70
     0
102
RTVSPost2010Prop35
280
     0
102
RTVSPost2010PropOp35
 70
     0
102
RTVSPost2010Prop36
280
     0
102
RTVSPost2010PropOp36
 70
     0
102
RTVSPost2010Prop37
 90
       50
102
RTVSPost2010PropOp37
 70
     0
102
RTVSPost2010Prop38
140
0.0
102
RTVSPost2010PropOp38
 70
     0
102
RTVSPost2010Prop39
140
1.0
102
RTVSPost2010PropOp39
 70
     0
102
RTVSPost2010Prop40
 90
        0
102
RTVSPost2010PropOp40
 70
     0
102
RTVSPost2010Prop41ColorIndex
 90
       18
102
RTVSPost2010Prop41ColorRGB
 90
        0
102
RTVSPost2010PropOp41
 70
     0
102
RTVSPost2010Prop42
 90
       50
102
RTVSPost2010PropOp42
 70
     0
102
RTVSPost2010Prop43
 90
        3
102
RTVSPost2010PropOp43
 70
     0
102
RTVSPost2010Prop44ColorIndex
 90
        5
102
RTVSPost2010Prop44ColorRGB
 90
      255
102
RTVSPost2010PropOp44
 70
     0
102
RTVSPost2010Prop45
280
     0
102
RTVSPost2010PropOp45
 70
     0
102
RTVSPost2010Prop46
 90
       50
102
RTVSPost2010PropOp46
 70
     0
102
RTVSPost2010Prop47
 90
       50
102
RTVSPost2010PropOp47
 70
     0
102
RTVSPost2010Prop48
 90
       50
102
RTVSPost2010PropOp48
 70
     0
102
RTVSPost2010Prop49
280
     0
102
RTVSPost2010PropOp49
 70
     0
102
RTVSPost2010Prop50
 90
       50
102
RTVSPost2010PropOp50
 70
     0
102
RTVSPost2010Prop51ColorIndex
 90
      256
102
RTVSPost2010Prop51ColorRGB
 90
-16777216
102
RTVSPost2010PropOp51
 70
     0
102
RTVSPost2010Prop52
140
1.0
102
RTVSPost2010PropOp52
 70
     0
102
RTVSPost2010Prop53
 90
        2
102
RTVSPost2010PropOp53
 70
     0
102
RTVSPost2010Prop54
  1
strokes_ogs.tif
102
RTVSPost2010PropOp54
 70
     0
102
RTVSPost2010Prop55
280
     0
102
RTVSPost2010PropOp55
 70
     0
102
RTVSPost2010Prop56
140
1.0
102
RTVSPost2010PropOp56
 70
     0
102
RTVSPost2010Prop57
140
1.0
102
RTVSPost2010PropOp57
 70
     0
  0
XRECORD
  5
37D1
102
{ACAD_REACTORS
330
37D0
102
}
330
37D0
100
AcDbXrecord
280
     1
102
RTVSPropertyOp0
 70
     1
102
RTVSPropertyOp1
 70
     1
102
RTVSPropertyOp2
 70
     1
102
RTVSPropertyOp3
 70
     1
102
RTVSPropertyOp4
 70
     1
102
RTVSPropertyOp5
 70
     1
102
RTVSPropertyOp6
 70
     1
102
RTVSPropertyOp7
 70
     1
102
RTVSPropertyOp8
 70
     1
102
RTVSPropertyOp9
 70
     1
102
RTVSPropertyOp10
 70
     1
102
RTVSPropertyOp11
 70
     1
102
RTVSPropertyOp12
 70
     1
102
RTVSPropertyOp13
 70
     1
102
RTVSPropertyOp14
 70
     1
102
RTVSPropertyOp15
 70
     1
102
RTVSPropertyOp16
 70
     1
102
RTVSPropertyOp17
 70
     1
102
RTVSPropertyOp18
 70
     1
102
RTVSPropertyOp19
 70
     1
102
RTVSPropertyOp20
 70
     1
102
RTVSPropertyOp21
 70
     1
102
RTVSPropertyOp22
 70
     1
102
RTVSPropertyOp23
 70
     1
102
RTVSPropertyOp24
 70
     1
102
RTVSPropertyOp25
 70
     1
102
RTVSPropertyOp26
 70
     1
102
RTVSPropertyOp27
 70
     1
102
RTVSPropertyOp28
 70
     1
102
RTVSPropertyOp29
 70
     1
102
RTVSPropertyOp30
 70
     1
102
RTVSPropertyOp31
 70
     1
102
RTVSPropertyOp32
 70
     1
102
RTVSPropertyOp33
 70
     1
102
RTVSPropertyOp34
 70
     1
102
RTVSPropertyOp35
 70
     1
102
RTVSPropertyOp36
 70
     1
102
RTVSPropertyOp37
 70
     1
102
RTVSPropertyOp38
 70
     1
102
RTVSPropertyOp39
 70
     1
102
RTVSPropertyOp40
 70
     1
102
RTVSPropertyOp41
 70
     1
102
RTVSPropertyOp42
 70
     1
102
RTVSPropertyOp43
 70
     1
102
RTVSPropertyOp44
 70
     1
102
RTVSPropertyOp45
 70
     1
102
RTVSPropertyOp46
 70
     1
102
RTVSPropertyOp47
 70
     1
102
RTVSPropertyOp48
 70
     1
102
RTVSPropertyOp49
 70
     1
102
RTVSPropertyOp50
 70
     1
102
RTVSPropertyOp51
 70
     0
102
RTVSPropertyOp52
 70
     0
102
RTVSPropertyOp53
 70
     1
102
RTVSPropertyOp54
 70
     1
102
RTVSPropertyOp55
 70
     1
102
RTVSPropertyOp56
 70
     1
102
RTVSPropertyOp57
 70
     1
102
RTVSPost2010Prop28
280
     0
102
RTVSPost2010PropOp28
 70
     1
102
RTVSPost2010Prop29
280
     1
102
RTVSPost2010PropOp29
 70
     1
102
RTVSPost2010Prop30
280
     1
102
RTVSPost2010PropOp30
 70
     1
102
RTVSPost2010Prop31
280
     0
102
RTVSPost2010PropOp31
 70
     1
102
RTVSPost2010Prop32
280
     0
102
RTVSPost2010PropOp32
 70
     1
102
RTVSPost2010Prop33
280
     0
102
RTVSPost2010PropOp33
 70
     1
102
RTVSPost2010Prop34
280
     0
102
RTVSPost2010PropOp34
 70
     1
102
RTVSPost2010Prop35
280
     0
102
RTVSPost2010PropOp35
 70
     1
102
RTVSPost2010Prop36
280
     0
102
RTVSPost2010PropOp36
 70
     1
102
RTVSPost2010Prop37
 90
       50
102
RTVSPost2010PropOp37
 70
     1
102
RTVSPost2010Prop38
140
0.0
102
RTVSPost2010PropOp38
 70
     1
102
RTVSPost2010Prop39
140
1.0
102
RTVSPost2010PropOp39
 70
     1
102
RTVSPost2010Prop40
 90
        0
102
RTVSPost2010PropOp40
 70
     1
102
RTVSPost2010Prop41ColorIndex
 90
       18
102
RTVSPost2010Prop41ColorRGB
 90
        0
102
RTVSPost2010PropOp41
 70
     1
102
RTVSPost2010Prop42
 90
       50
102
RTVSPost2010PropOp42
 70
     1
102
RTVSPost2010Prop43
 90
        3
102
RTVSPost2010PropOp43
 70
     1
102
RTVSPost2010Prop44ColorIndex
 90
        5
102
RTVSPost2010Prop44ColorRGB
 90
      255
102
RTVSPost2010PropOp44
 70
     1
102
RTVSPost2010Prop45
280
     0
102
RTVSPost2010PropOp45
 70
     1
102
RTVSPost2010Prop46
 90
       50
102
RTVSPost2010PropOp46
 70
     1
102
RTVSPost2010Prop47
 90
       50
102
RTVSPost2010PropOp47
 70
     1
102
RTVSPost2010Prop48
 90
       50
102
RTVSPost2010PropOp48
 70
     1
102
RTVSPost2010Prop49
280
     0
102
RTVSPost2010PropOp49
 70
     1
102
RTVSPost2010Prop50
 90
       50
102
RTVSPost2010PropOp50
 70
     1
102
RTVSPost2010Prop51ColorIndex
 90
      256
102
RTVSPost2010Prop51ColorRGB
 90
-16777216
102
RTVSPost2010PropOp51
 70
     0
102
RTVSPost2010Prop52
140
1.0
102
RTVSPost2010PropOp52
 70
     0
102
RTVSPost2010Prop53
 90
        2
102
RTVSPost2010PropOp53
 70
     1
102
RTVSPost2010Prop54
  1
strokes_ogs.tif
102
RTVSPost2010PropOp54
 70
     1
102
RTVSPost2010Prop55
280
     0
102
RTVSPost2010PropOp55
 70
     1
102
RTVSPost2010Prop56
140
1.0
102
RTVSPost2010PropOp56
 70
     1
102
RTVSPost2010Prop57
140
1.0
102
RTVSPost2010PropOp57
 70
     1
  0
XRECORD
  5
37B5
102
{ACAD_REACTORS
330
37B4
102
}
330
37B4
100
AcDbXrecord
280
     1
102
RTVSPropertyOp0
 70
     1
102
RTVSPropertyOp1
 70
     1
102
RTVSPropertyOp2
 70
     1
102
RTVSPropertyOp3
 70
     1
102
RTVSPropertyOp4
 70
     1
102
RTVSPropertyOp5
 70
     1
102
RTVSPropertyOp6
 70
     1
102
RTVSPropertyOp7
 70
     1
102
RTVSPropertyOp8
 70
     1
102
RTVSPropertyOp9
 70
     1
102
RTVSPropertyOp10
 70
     1
102
RTVSPropertyOp11
 70
     1
102
RTVSPropertyOp12
 70
     1
102
RTVSPropertyOp13
 70
     1
102
RTVSPropertyOp14
 70
     1
102
RTVSPropertyOp15
 70
     1
102
RTVSPropertyOp16
 70
     1
102
RTVSPropertyOp17
 70
     1
102
RTVSPropertyOp18
 70
     1
102
RTVSPropertyOp19
 70
     1
102
RTVSPropertyOp20
 70
     1
102
RTVSPropertyOp21
 70
     1
102
RTVSPropertyOp22
 70
     1
102
RTVSPropertyOp23
 70
     1
102
RTVSPropertyOp24
 70
     1
102
RTVSPropertyOp25
 70
     1
102
RTVSPropertyOp26
 70
     1
102
RTVSPropertyOp27
 70
     1
102
RTVSPropertyOp28
 70
     1
102
RTVSPropertyOp29
 70
     1
102
RTVSPropertyOp30
 70
     1
102
RTVSPropertyOp31
 70
     1
102
RTVSPropertyOp32
 70
     1
102
RTVSPropertyOp33
 70
     1
102
RTVSPropertyOp34
 70
     1
102
RTVSPropertyOp35
 70
     1
102
RTVSPropertyOp36
 70
     1
102
RTVSPropertyOp37
 70
     1
102
RTVSPropertyOp38
 70
     1
102
RTVSPropertyOp39
 70
     1
102
RTVSPropertyOp40
 70
     1
102
RTVSPropertyOp41
 70
     1
102
RTVSPropertyOp42
 70
     1
102
RTVSPropertyOp43
 70
     1
102
RTVSPropertyOp44
 70
     1
102
RTVSPropertyOp45
 70
     1
102
RTVSPropertyOp46
 70
     1
102
RTVSPropertyOp47
 70
     1
102
RTVSPropertyOp48
 70
     1
102
RTVSPropertyOp49
 70
     1
102
RTVSPropertyOp50
 70
     1
102
RTVSPropertyOp51
 70
     0
102
RTVSPropertyOp52
 70
     0
102
RTVSPropertyOp53
 70
     1
102
RTVSPropertyOp54
 70
     1
102
RTVSPropertyOp55
 70
     1
102
RTVSPropertyOp56
 70
     1
102
RTVSPropertyOp57
 70
     1
102
RTVSPost2010Prop28
280
     0
102
RTVSPost2010PropOp28
 70
     1
102
RTVSPost2010Prop29
280
     1
102
RTVSPost2010PropOp29
 70
     1
102
RTVSPost2010Prop30
280
     1
102
RTVSPost2010PropOp30
 70
     1
102
RTVSPost2010Prop31
280
     0
102
RTVSPost2010PropOp31
 70
     1
102
RTVSPost2010Prop32
280
     0
102
RTVSPost2010PropOp32
 70
     1
102
RTVSPost2010Prop33
280
     0
102
RTVSPost2010PropOp33
 70
     1
102
RTVSPost2010Prop34
280
     0
102
RTVSPost2010PropOp34
 70
     1
102
RTVSPost2010Prop35
280
     0
102
RTVSPost2010PropOp35
 70
     1
102
RTVSPost2010Prop36
280
     0
102
RTVSPost2010PropOp36
 70
     1
102
RTVSPost2010Prop37
 90
       50
102
RTVSPost2010PropOp37
 70
     1
102
RTVSPost2010Prop38
140
0.0
102
RTVSPost2010PropOp38
 70
     1
102
RTVSPost2010Prop39
140
1.0
102
RTVSPost2010PropOp39
 70
     1
102
RTVSPost2010Prop40
 90
        0
102
RTVSPost2010PropOp40
 70
     1
102
RTVSPost2010Prop41ColorIndex
 90
       18
102
RTVSPost2010Prop41ColorRGB
 90
        0
102
RTVSPost2010PropOp41
 70
     1
102
RTVSPost2010Prop42
 90
       50
102
RTVSPost2010PropOp42
 70
     1
102
RTVSPost2010Prop43
 90
        3
102
RTVSPost2010PropOp43
 70
     1
102
RTVSPost2010Prop44ColorIndex
 90
        5
102
RTVSPost2010Prop44ColorRGB
 90
      255
102
RTVSPost2010PropOp44
 70
     1
102
RTVSPost2010Prop45
280
     0
102
RTVSPost2010PropOp45
 70
     1
102
RTVSPost2010Prop46
 90
       50
102
RTVSPost2010PropOp46
 70
     1
102
RTVSPost2010Prop47
 90
       50
102
RTVSPost2010PropOp47
 70
     1
102
RTVSPost2010Prop48
 90
       50
102
RTVSPost2010PropOp48
 70
     1
102
RTVSPost2010Prop49
280
     0
102
RTVSPost2010PropOp49
 70
     1
102
RTVSPost2010Prop50
 90
       50
102
RTVSPost2010PropOp50
 70
     1
102
RTVSPost2010Prop51ColorIndex
 90
      256
102
RTVSPost2010Prop51ColorRGB
 90
-16777216
102
RTVSPost2010PropOp51
 70
     0
102
RTVSPost2010Prop52
140
1.0
102
RTVSPost2010PropOp52
 70
     0
102
RTVSPost2010Prop53
 90
        2
102
RTVSPost2010PropOp53
 70
     1
102
RTVSPost2010Prop54
  1
strokes_ogs.tif
102
RTVSPost2010PropOp54
 70
     1
102
RTVSPost2010Prop55
280
     0
102
RTVSPost2010PropOp55
 70
     1
102
RTVSPost2010Prop56
140
1.0
102
RTVSPost2010PropOp56
 70
     1
102
RTVSPost2010Prop57
140
1.0
102
RTVSPost2010PropOp57
 70
     1
  0
XRECORD
  5
37B7
102
{ACAD_REACTORS
330
37B6
102
}
330
37B6
100
AcDbXrecord
280
     1
102
RTVSPropertyOp0
 70
     1
102
RTVSPropertyOp1
 70
     1
102
RTVSPropertyOp2
 70
     1
102
RTVSPropertyOp3
 70
     1
102
RTVSPropertyOp4
 70
     1
102
RTVSPropertyOp5
 70
     1
102
RTVSPropertyOp6
 70
     1
102
RTVSPropertyOp7
 70
     1
102
RTVSPropertyOp8
 70
     1
102
RTVSPropertyOp9
 70
     1
102
RTVSPropertyOp10
 70
     1
102
RTVSPropertyOp11
 70
     1
102
RTVSPropertyOp12
 70
     1
102
RTVSPropertyOp13
 70
     1
102
RTVSPropertyOp14
 70
     1
102
RTVSPropertyOp15
 70
     1
102
RTVSPropertyOp16
 70
     1
102
RTVSPropertyOp17
 70
     1
102
RTVSPropertyOp18
 70
     1
102
RTVSPropertyOp19
 70
     1
102
RTVSPropertyOp20
 70
     1
102
RTVSPropertyOp21
 70
     1
102
RTVSPropertyOp22
 70
     1
102
RTVSPropertyOp23
 70
     1
102
RTVSPropertyOp24
 70
     1
102
RTVSPropertyOp25
 70
     1
102
RTVSPropertyOp26
 70
     1
102
RTVSPropertyOp27
 70
     1
102
RTVSPropertyOp28
 70
     1
102
RTVSPropertyOp29
 70
     1
102
RTVSPropertyOp30
 70
     1
102
RTVSPropertyOp31
 70
     1
102
RTVSPropertyOp32
 70
     1
102
RTVSPropertyOp33
 70
     1
102
RTVSPropertyOp34
 70
     1
102
RTVSPropertyOp35
 70
     1
102
RTVSPropertyOp36
 70
     1
102
RTVSPropertyOp37
 70
     1
102
RTVSPropertyOp38
 70
     1
102
RTVSPropertyOp39
 70
     1
102
RTVSPropertyOp40
 70
     1
102
RTVSPropertyOp41
 70
     1
102
RTVSPropertyOp42
 70
     1
102
RTVSPropertyOp43
 70
     1
102
RTVSPropertyOp44
 70
     1
102
RTVSPropertyOp45
 70
     1
102
RTVSPropertyOp46
 70
     1
102
RTVSPropertyOp47
 70
     1
102
RTVSPropertyOp48
 70
     1
102
RTVSPropertyOp49
 70
     1
102
RTVSPropertyOp50
 70
     1
102
RTVSPropertyOp51
 70
     0
102
RTVSPropertyOp52
 70
     0
102
RTVSPropertyOp53
 70
     1
102
RTVSPropertyOp54
 70
     1
102
RTVSPropertyOp55
 70
     1
102
RTVSPropertyOp56
 70
     1
102
RTVSPropertyOp57
 70
     1
102
RTVSPost2010Prop28
280
     0
102
RTVSPost2010PropOp28
 70
     1
102
RTVSPost2010Prop29
280
     1
102
RTVSPost2010PropOp29
 70
     1
102
RTVSPost2010Prop30
280
     1
102
RTVSPost2010PropOp30
 70
     1
102
RTVSPost2010Prop31
280
     0
102
RTVSPost2010PropOp31
 70
     1
102
RTVSPost2010Prop32
280
     0
102
RTVSPost2010PropOp32
 70
     1
102
RTVSPost2010Prop33
280
     0
102
RTVSPost2010PropOp33
 70
     1
102
RTVSPost2010Prop34
280
     0
102
RTVSPost2010PropOp34
 70
     1
102
RTVSPost2010Prop35
280
     0
102
RTVSPost2010PropOp35
 70
     1
102
RTVSPost2010Prop36
280
     0
102
RTVSPost2010PropOp36
 70
     1
102
RTVSPost2010Prop37
 90
       50
102
RTVSPost2010PropOp37
 70
     1
102
RTVSPost2010Prop38
140
0.0
102
RTVSPost2010PropOp38
 70
     1
102
RTVSPost2010Prop39
140
1.0
102
RTVSPost2010PropOp39
 70
     1
102
RTVSPost2010Prop40
 90
        0
102
RTVSPost2010PropOp40
 70
     1
102
RTVSPost2010Prop41ColorIndex
 90
       18
102
RTVSPost2010Prop41ColorRGB
 90
        0
102
RTVSPost2010PropOp41
 70
     1
102
RTVSPost2010Prop42
 90
       50
102
RTVSPost2010PropOp42
 70
     1
102
RTVSPost2010Prop43
 90
        3
102
RTVSPost2010PropOp43
 70
     1
102
RTVSPost2010Prop44ColorIndex
 90
        5
102
RTVSPost2010Prop44ColorRGB
 90
      255
102
RTVSPost2010PropOp44
 70
     1
102
RTVSPost2010Prop45
280
     0
102
RTVSPost2010PropOp45
 70
     1
102
RTVSPost2010Prop46
 90
       50
102
RTVSPost2010PropOp46
 70
     1
102
RTVSPost2010Prop47
 90
       50
102
RTVSPost2010PropOp47
 70
     1
102
RTVSPost2010Prop48
 90
       50
102
RTVSPost2010PropOp48
 70
     1
102
RTVSPost2010Prop49
280
     0
102
RTVSPost2010PropOp49
 70
     1
102
RTVSPost2010Prop50
 90
       50
102
RTVSPost2010PropOp50
 70
     1
102
RTVSPost2010Prop51ColorIndex
 90
      256
102
RTVSPost2010Prop51ColorRGB
 90
-16777216
102
RTVSPost2010PropOp51
 70
     0
102
RTVSPost2010Prop52
140
1.0
102
RTVSPost2010PropOp52
 70
     0
102
RTVSPost2010Prop53
 90
        2
102
RTVSPost2010PropOp53
 70
     1
102
RTVSPost2010Prop54
  1
strokes_ogs.tif
102
RTVSPost2010PropOp54
 70
     1
102
RTVSPost2010Prop55
280
     0
102
RTVSPost2010PropOp55
 70
     1
102
RTVSPost2010Prop56
140
1.0
102
RTVSPost2010PropOp56
 70
     1
102
RTVSPost2010Prop57
140
1.0
102
RTVSPost2010PropOp57
 70
     1
  0
XRECORD
  5
37B9
102
{ACAD_REACTORS
330
37B8
102
}
330
37B8
100
AcDbXrecord
280
     1
102
RTVSPropertyOp0
 70
     1
102
RTVSPropertyOp1
 70
     1
102
RTVSPropertyOp2
 70
     1
102
RTVSPropertyOp3
 70
     1
102
RTVSPropertyOp4
 70
     1
102
RTVSPropertyOp5
 70
     1
102
RTVSPropertyOp6
 70
     1
102
RTVSPropertyOp7
 70
     1
102
RTVSPropertyOp8
 70
     1
102
RTVSPropertyOp9
 70
     1
102
RTVSPropertyOp10
 70
     1
102
RTVSPropertyOp11
 70
     1
102
RTVSPropertyOp12
 70
     1
102
RTVSPropertyOp13
 70
     1
102
RTVSPropertyOp14
 70
     1
102
RTVSPropertyOp15
 70
     1
102
RTVSPropertyOp16
 70
     1
102
RTVSPropertyOp17
 70
     1
102
RTVSPropertyOp18
 70
     1
102
RTVSPropertyOp19
 70
     1
102
RTVSPropertyOp20
 70
     1
102
RTVSPropertyOp21
 70
     1
102
RTVSPropertyOp22
 70
     1
102
RTVSPropertyOp23
 70
     1
102
RTVSPropertyOp24
 70
     1
102
RTVSPropertyOp25
 70
     1
102
RTVSPropertyOp26
 70
     1
102
RTVSPropertyOp27
 70
     1
102
RTVSPropertyOp28
 70
     1
102
RTVSPropertyOp29
 70
     1
102
RTVSPropertyOp30
 70
     1
102
RTVSPropertyOp31
 70
     1
102
RTVSPropertyOp32
 70
     1
102
RTVSPropertyOp33
 70
     1
102
RTVSPropertyOp34
 70
     1
102
RTVSPropertyOp35
 70
     1
102
RTVSPropertyOp36
 70
     1
102
RTVSPropertyOp37
 70
     1
102
RTVSPropertyOp38
 70
     1
102
RTVSPropertyOp39
 70
     1
102
RTVSPropertyOp40
 70
     1
102
RTVSPropertyOp41
 70
     1
102
RTVSPropertyOp42
 70
     1
102
RTVSPropertyOp43
 70
     1
102
RTVSPropertyOp44
 70
     1
102
RTVSPropertyOp45
 70
     1
102
RTVSPropertyOp46
 70
     1
102
RTVSPropertyOp47
 70
     1
102
RTVSPropertyOp48
 70
     1
102
RTVSPropertyOp49
 70
     1
102
RTVSPropertyOp50
 70
     1
102
RTVSPropertyOp51
 70
     0
102
RTVSPropertyOp52
 70
     0
102
RTVSPropertyOp53
 70
     1
102
RTVSPropertyOp54
 70
     1
102
RTVSPropertyOp55
 70
     1
102
RTVSPropertyOp56
 70
     1
102
RTVSPropertyOp57
 70
     1
102
RTVSPost2010Prop28
280
     0
102
RTVSPost2010PropOp28
 70
     1
102
RTVSPost2010Prop29
280
     1
102
RTVSPost2010PropOp29
 70
     1
102
RTVSPost2010Prop30
280
     1
102
RTVSPost2010PropOp30
 70
     1
102
RTVSPost2010Prop31
280
     0
102
RTVSPost2010PropOp31
 70
     1
102
RTVSPost2010Prop32
280
     0
102
RTVSPost2010PropOp32
 70
     1
102
RTVSPost2010Prop33
280
     0
102
RTVSPost2010PropOp33
 70
     1
102
RTVSPost2010Prop34
280
     0
102
RTVSPost2010PropOp34
 70
     1
102
RTVSPost2010Prop35
280
     0
102
RTVSPost2010PropOp35
 70
     1
102
RTVSPost2010Prop36
280
     0
102
RTVSPost2010PropOp36
 70
     1
102
RTVSPost2010Prop37
 90
       50
102
RTVSPost2010PropOp37
 70
     1
102
RTVSPost2010Prop38
140
0.0
102
RTVSPost2010PropOp38
 70
     1
102
RTVSPost2010Prop39
140
1.0
102
RTVSPost2010PropOp39
 70
     1
102
RTVSPost2010Prop40
 90
        0
102
RTVSPost2010PropOp40
 70
     1
102
RTVSPost2010Prop41ColorIndex
 90
       18
102
RTVSPost2010Prop41ColorRGB
 90
        0
102
RTVSPost2010PropOp41
 70
     1
102
RTVSPost2010Prop42
 90
       50
102
RTVSPost2010PropOp42
 70
     1
102
RTVSPost2010Prop43
 90
        3
102
RTVSPost2010PropOp43
 70
     1
102
RTVSPost2010Prop44ColorIndex
 90
        5
102
RTVSPost2010Prop44ColorRGB
 90
      255
102
RTVSPost2010PropOp44
 70
     1
102
RTVSPost2010Prop45
280
     0
102
RTVSPost2010PropOp45
 70
     1
102
RTVSPost2010Prop46
 90
       50
102
RTVSPost2010PropOp46
 70
     1
102
RTVSPost2010Prop47
 90
       50
102
RTVSPost2010PropOp47
 70
     1
102
RTVSPost2010Prop48
 90
       50
102
RTVSPost2010PropOp48
 70
     1
102
RTVSPost2010Prop49
280
     0
102
RTVSPost2010PropOp49
 70
     1
102
RTVSPost2010Prop50
 90
       50
102
RTVSPost2010PropOp50
 70
     1
102
RTVSPost2010Prop51ColorIndex
 90
      256
102
RTVSPost2010Prop51ColorRGB
 90
-16777216
102
RTVSPost2010PropOp51
 70
     0
102
RTVSPost2010Prop52
140
1.0
102
RTVSPost2010PropOp52
 70
     0
102
RTVSPost2010Prop53
 90
        2
102
RTVSPost2010PropOp53
 70
     1
102
RTVSPost2010Prop54
  1
strokes_ogs.tif
102
RTVSPost2010PropOp54
 70
     1
102
RTVSPost2010Prop55
280
     0
102
RTVSPost2010PropOp55
 70
     1
102
RTVSPost2010Prop56
140
1.0
102
RTVSPost2010PropOp56
 70
     1
102
RTVSPost2010Prop57
140
1.0
102
RTVSPost2010PropOp57
 70
     1
  0
XRECORD
  5
37BB
102
{ACAD_REACTORS
330
37BA
102
}
330
37BA
100
AcDbXrecord
280
     1
102
RTVSPropertyOp0
 70
     1
102
RTVSPropertyOp1
 70
     1
102
RTVSPropertyOp2
 70
     1
102
RTVSPropertyOp3
 70
     1
102
RTVSPropertyOp4
 70
     1
102
RTVSPropertyOp5
 70
     1
102
RTVSPropertyOp6
 70
     1
102
RTVSPropertyOp7
 70
     1
102
RTVSPropertyOp8
 70
     1
102
RTVSPropertyOp9
 70
     1
102
RTVSPropertyOp10
 70
     1
102
RTVSPropertyOp11
 70
     1
102
RTVSPropertyOp12
 70
     1
102
RTVSPropertyOp13
 70
     1
102
RTVSPropertyOp14
 70
     1
102
RTVSPropertyOp15
 70
     1
102
RTVSPropertyOp16
 70
     1
102
RTVSPropertyOp17
 70
     1
102
RTVSPropertyOp18
 70
     1
102
RTVSPropertyOp19
 70
     1
102
RTVSPropertyOp20
 70
     1
102
RTVSPropertyOp21
 70
     1
102
RTVSPropertyOp22
 70
     1
102
RTVSPropertyOp23
 70
     1
102
RTVSPropertyOp24
 70
     1
102
RTVSPropertyOp25
 70
     1
102
RTVSPropertyOp26
 70
     1
102
RTVSPropertyOp27
 70
     1
102
RTVSPropertyOp28
 70
     1
102
RTVSPropertyOp29
 70
     1
102
RTVSPropertyOp30
 70
     1
102
RTVSPropertyOp31
 70
     1
102
RTVSPropertyOp32
 70
     1
102
RTVSPropertyOp33
 70
     1
102
RTVSPropertyOp34
 70
     1
102
RTVSPropertyOp35
 70
     1
102
RTVSPropertyOp36
 70
     1
102
RTVSPropertyOp37
 70
     1
102
RTVSPropertyOp38
 70
     1
102
RTVSPropertyOp39
 70
     1
102
RTVSPropertyOp40
 70
     1
102
RTVSPropertyOp41
 70
     1
102
RTVSPropertyOp42
 70
     1
102
RTVSPropertyOp43
 70
     1
102
RTVSPropertyOp44
 70
     1
102
RTVSPropertyOp45
 70
     1
102
RTVSPropertyOp46
 70
     1
102
RTVSPropertyOp47
 70
     1
102
RTVSPropertyOp48
 70
     1
102
RTVSPropertyOp49
 70
     1
102
RTVSPropertyOp50
 70
     1
102
RTVSPropertyOp51
 70
     0
102
RTVSPropertyOp52
 70
     0
102
RTVSPropertyOp53
 70
     1
102
RTVSPropertyOp54
 70
     1
102
RTVSPropertyOp55
 70
     1
102
RTVSPropertyOp56
 70
     1
102
RTVSPropertyOp57
 70
     1
102
RTVSPost2010Prop28
280
     0
102
RTVSPost2010PropOp28
 70
     1
102
RTVSPost2010Prop29
280
     1
102
RTVSPost2010PropOp29
 70
     1
102
RTVSPost2010Prop30
280
     1
102
RTVSPost2010PropOp30
 70
     1
102
RTVSPost2010Prop31
280
     0
102
RTVSPost2010PropOp31
 70
     1
102
RTVSPost2010Prop32
280
     0
102
RTVSPost2010PropOp32
 70
     1
102
RTVSPost2010Prop33
280
     0
102
RTVSPost2010PropOp33
 70
     1
102
RTVSPost2010Prop34
280
     0
102
RTVSPost2010PropOp34
 70
     1
102
RTVSPost2010Prop35
280
     0
102
RTVSPost2010PropOp35
 70
     1
102
RTVSPost2010Prop36
280
     0
102
RTVSPost2010PropOp36
 70
     1
102
RTVSPost2010Prop37
 90
       50
102
RTVSPost2010PropOp37
 70
     1
102
RTVSPost2010Prop38
140
0.0
102
RTVSPost2010PropOp38
 70
     1
102
RTVSPost2010Prop39
140
1.0
102
RTVSPost2010PropOp39
 70
     1
102
RTVSPost2010Prop40
 90
        0
102
RTVSPost2010PropOp40
 70
     1
102
RTVSPost2010Prop41ColorIndex
 90
       18
102
RTVSPost2010Prop41ColorRGB
 90
        0
102
RTVSPost2010PropOp41
 70
     1
102
RTVSPost2010Prop42
 90
       50
102
RTVSPost2010PropOp42
 70
     1
102
RTVSPost2010Prop43
 90
        3
102
RTVSPost2010PropOp43
 70
     1
102
RTVSPost2010Prop44ColorIndex
 90
        5
102
RTVSPost2010Prop44ColorRGB
 90
      255
102
RTVSPost2010PropOp44
 70
     1
102
RTVSPost2010Prop45
280
     0
102
RTVSPost2010PropOp45
 70
     1
102
RTVSPost2010Prop46
 90
       50
102
RTVSPost2010PropOp46
 70
     1
102
RTVSPost2010Prop47
 90
       50
102
RTVSPost2010PropOp47
 70
     1
102
RTVSPost2010Prop48
 90
       50
102
RTVSPost2010PropOp48
 70
     1
102
RTVSPost2010Prop49
280
     0
102
RTVSPost2010PropOp49
 70
     1
102
RTVSPost2010Prop50
 90
       50
102
RTVSPost2010PropOp50
 70
     1
102
RTVSPost2010Prop51ColorIndex
 90
      256
102
RTVSPost2010Prop51ColorRGB
 90
-16777216
102
RTVSPost2010PropOp51
 70
     0
102
RTVSPost2010Prop52
140
1.0
102
RTVSPost2010PropOp52
 70
     0
102
RTVSPost2010Prop53
 90
        2
102
RTVSPost2010PropOp53
 70
     1
102
RTVSPost2010Prop54
  1
strokes_ogs.tif
102
RTVSPost2010PropOp54
 70
     1
102
RTVSPost2010Prop55
280
     0
102
RTVSPost2010PropOp55
 70
     1
102
RTVSPost2010Prop56
140
1.0
102
RTVSPost2010PropOp56
 70
     1
102
RTVSPost2010Prop57
140
1.0
102
RTVSPost2010PropOp57
 70
     1
  0
XRECORD
  5
37C1
102
{ACAD_REACTORS
330
37C0
102
}
330
37C0
100
AcDbXrecord
280
     1
102
RTVSPropertyOp0
 70
     1
102
RTVSPropertyOp1
 70
     1
102
RTVSPropertyOp2
 70
     1
102
RTVSPropertyOp3
 70
     1
102
RTVSPropertyOp4
 70
     1
102
RTVSPropertyOp5
 70
     1
102
RTVSPropertyOp6
 70
     1
102
RTVSPropertyOp7
 70
     1
102
RTVSPropertyOp8
 70
     1
102
RTVSPropertyOp9
 70
     1
102
RTVSPropertyOp10
 70
     1
102
RTVSPropertyOp11
 70
     1
102
RTVSPropertyOp12
 70
     1
102
RTVSPropertyOp13
 70
     1
102
RTVSPropertyOp14
 70
     1
102
RTVSPropertyOp15
 70
     1
102
RTVSPropertyOp16
 70
     1
102
RTVSPropertyOp17
 70
     1
102
RTVSPropertyOp18
 70
     1
102
RTVSPropertyOp19
 70
     1
102
RTVSPropertyOp20
 70
     1
102
RTVSPropertyOp21
 70
     1
102
RTVSPropertyOp22
 70
     1
102
RTVSPropertyOp23
 70
     1
102
RTVSPropertyOp24
 70
     1
102
RTVSPropertyOp25
 70
     1
102
RTVSPropertyOp26
 70
     1
102
RTVSPropertyOp27
 70
     1
102
RTVSPropertyOp28
 70
     1
102
RTVSPropertyOp29
 70
     1
102
RTVSPropertyOp30
 70
     1
102
RTVSPropertyOp31
 70
     1
102
RTVSPropertyOp32
 70
     1
102
RTVSPropertyOp33
 70
     1
102
RTVSPropertyOp34
 70
     1
102
RTVSPropertyOp35
 70
     1
102
RTVSPropertyOp36
 70
     1
102
RTVSPropertyOp37
 70
     1
102
RTVSPropertyOp38
 70
     1
102
RTVSPropertyOp39
 70
     1
102
RTVSPropertyOp40
 70
     1
102
RTVSPropertyOp41
 70
     1
102
RTVSPropertyOp42
 70
     1
102
RTVSPropertyOp43
 70
     1
102
RTVSPropertyOp44
 70
     1
102
RTVSPropertyOp45
 70
     1
102
RTVSPropertyOp46
 70
     1
102
RTVSPropertyOp47
 70
     1
102
RTVSPropertyOp48
 70
     1
102
RTVSPropertyOp49
 70
     1
102
RTVSPropertyOp50
 70
     1
102
RTVSPropertyOp51
 70
     0
102
RTVSPropertyOp52
 70
     0
102
RTVSPropertyOp53
 70
     1
102
RTVSPropertyOp54
 70
     1
102
RTVSPropertyOp55
 70
     1
102
RTVSPropertyOp56
 70
     1
102
RTVSPropertyOp57
 70
     1
102
RTVSPost2010Prop28
280
     0
102
RTVSPost2010PropOp28
 70
     1
102
RTVSPost2010Prop29
280
     1
102
RTVSPost2010PropOp29
 70
     1
102
RTVSPost2010Prop30
280
     1
102
RTVSPost2010PropOp30
 70
     1
102
RTVSPost2010Prop31
280
     0
102
RTVSPost2010PropOp31
 70
     1
102
RTVSPost2010Prop32
280
     0
102
RTVSPost2010PropOp32
 70
     1
102
RTVSPost2010Prop33
280
     0
102
RTVSPost2010PropOp33
 70
     1
102
RTVSPost2010Prop34
280
     0
102
RTVSPost2010PropOp34
 70
     1
102
RTVSPost2010Prop35
280
     0
102
RTVSPost2010PropOp35
 70
     1
102
RTVSPost2010Prop36
280
     0
102
RTVSPost2010PropOp36
 70
     1
102
RTVSPost2010Prop37
 90
       50
102
RTVSPost2010PropOp37
 70
     1
102
RTVSPost2010Prop38
140
0.0
102
RTVSPost2010PropOp38
 70
     1
102
RTVSPost2010Prop39
140
1.0
102
RTVSPost2010PropOp39
 70
     1
102
RTVSPost2010Prop40
 90
        0
102
RTVSPost2010PropOp40
 70
     1
102
RTVSPost2010Prop41ColorIndex
 90
       18
102
RTVSPost2010Prop41ColorRGB
 90
        0
102
RTVSPost2010PropOp41
 70
     1
102
RTVSPost2010Prop42
 90
       50
102
RTVSPost2010PropOp42
 70
     1
102
RTVSPost2010Prop43
 90
        3
102
RTVSPost2010PropOp43
 70
     1
102
RTVSPost2010Prop44ColorIndex
 90
        5
102
RTVSPost2010Prop44ColorRGB
 90
      255
102
RTVSPost2010PropOp44
 70
     1
102
RTVSPost2010Prop45
280
     0
102
RTVSPost2010PropOp45
 70
     1
102
RTVSPost2010Prop46
 90
       50
102
RTVSPost2010PropOp46
 70
     1
102
RTVSPost2010Prop47
 90
       50
102
RTVSPost2010PropOp47
 70
     1
102
RTVSPost2010Prop48
 90
       50
102
RTVSPost2010PropOp48
 70
     1
102
RTVSPost2010Prop49
280
     0
102
RTVSPost2010PropOp49
 70
     1
102
RTVSPost2010Prop50
 90
       50
102
RTVSPost2010PropOp50
 70
     1
102
RTVSPost2010Prop51ColorIndex
 90
      256
102
RTVSPost2010Prop51ColorRGB
 90
-16777216
102
RTVSPost2010PropOp51
 70
     0
102
RTVSPost2010Prop52
140
1.0
102
RTVSPost2010PropOp52
 70
     0
102
RTVSPost2010Prop53
 90
        2
102
RTVSPost2010PropOp53
 70
     1
102
RTVSPost2010Prop54
  1
strokes_ogs.tif
102
RTVSPost2010PropOp54
 70
     1
102
RTVSPost2010Prop55
280
     0
102
RTVSPost2010PropOp55
 70
     1
102
RTVSPost2010Prop56
140
1.0
102
RTVSPost2010PropOp56
 70
     1
102
RTVSPost2010Prop57
140
1.0
102
RTVSPost2010PropOp57
 70
     1
  0
XRECORD
  5
37D5
102
{ACAD_REACTORS
330
37D4
102
}
330
37D4
100
AcDbXrecord
280
     1
102
RTVSPropertyOp0
 70
     0
102
RTVSPropertyOp1
 70
     0
102
RTVSPropertyOp2
 70
     0
102
RTVSPropertyOp3
 70
     0
102
RTVSPropertyOp4
 70
     0
102
RTVSPropertyOp5
 70
     0
102
RTVSPropertyOp6
 70
     0
102
RTVSPropertyOp7
 70
     0
102
RTVSPropertyOp8
 70
     0
102
RTVSPropertyOp9
 70
     0
102
RTVSPropertyOp10
 70
     0
102
RTVSPropertyOp11
 70
     0
102
RTVSPropertyOp12
 70
     0
102
RTVSPropertyOp13
 70
     0
102
RTVSPropertyOp14
 70
     2
102
RTVSPropertyOp15
 70
     0
102
RTVSPropertyOp16
 70
     0
102
RTVSPropertyOp17
 70
     0
102
RTVSPropertyOp18
 70
     0
102
RTVSPropertyOp19
 70
     0
102
RTVSPropertyOp20
 70
     0
102
RTVSPropertyOp21
 70
     0
102
RTVSPropertyOp22
 70
     0
102
RTVSPropertyOp23
 70
     0
102
RTVSPropertyOp24
 70
     0
102
RTVSPropertyOp25
 70
     0
102
RTVSPropertyOp26
 70
     0
102
RTVSPropertyOp27
 70
     0
102
RTVSPropertyOp28
 70
     0
102
RTVSPropertyOp29
 70
     0
102
RTVSPropertyOp30
 70
     0
102
RTVSPropertyOp31
 70
     0
102
RTVSPropertyOp32
 70
     0
102
RTVSPropertyOp33
 70
     0
102
RTVSPropertyOp34
 70
     0
102
RTVSPropertyOp35
 70
     0
102
RTVSPropertyOp36
 70
     0
102
RTVSPropertyOp37
 70
     0
102
RTVSPropertyOp38
 70
     0
102
RTVSPropertyOp39
 70
     0
102
RTVSPropertyOp40
 70
     0
102
RTVSPropertyOp41
 70
     0
102
RTVSPropertyOp42
 70
     0
102
RTVSPropertyOp43
 70
     0
102
RTVSPropertyOp44
 70
     0
102
RTVSPropertyOp45
 70
     0
102
RTVSPropertyOp46
 70
     0
102
RTVSPropertyOp47
 70
     0
102
RTVSPropertyOp48
 70
     0
102
RTVSPropertyOp49
 70
     0
102
RTVSPropertyOp50
 70
     0
102
RTVSPropertyOp51
 70
     0
102
RTVSPropertyOp52
 70
     0
102
RTVSPropertyOp53
 70
     0
102
RTVSPropertyOp54
 70
     0
102
RTVSPropertyOp55
 70
     0
102
RTVSPropertyOp56
 70
     0
102
RTVSPropertyOp57
 70
     0
102
RTVSPost2010Prop28
280
     0
102
RTVSPost2010PropOp28
 70
     0
102
RTVSPost2010Prop29
280
     1
102
RTVSPost2010PropOp29
 70
     0
102
RTVSPost2010Prop30
280
     1
102
RTVSPost2010PropOp30
 70
     0
102
RTVSPost2010Prop31
280
     0
102
RTVSPost2010PropOp31
 70
     0
102
RTVSPost2010Prop32
280
     0
102
RTVSPost2010PropOp32
 70
     0
102
RTVSPost2010Prop33
280
     0
102
RTVSPost2010PropOp33
 70
     0
102
RTVSPost2010Prop34
280
     0
102
RTVSPost2010PropOp34
 70
     0
102
RTVSPost2010Prop35
280
     0
102
RTVSPost2010PropOp35
 70
     0
102
RTVSPost2010Prop36
280
     0
102
RTVSPost2010PropOp36
 70
     0
102
RTVSPost2010Prop37
 90
       50
102
RTVSPost2010PropOp37
 70
     0
102
RTVSPost2010Prop38
140
0.0
102
RTVSPost2010PropOp38
 70
     0
102
RTVSPost2010Prop39
140
1.0
102
RTVSPost2010PropOp39
 70
     0
102
RTVSPost2010Prop40
 90
        0
102
RTVSPost2010PropOp40
 70
     0
102
RTVSPost2010Prop41ColorIndex
 90
       18
102
RTVSPost2010Prop41ColorRGB
 90
        0
102
RTVSPost2010PropOp41
 70
     0
102
RTVSPost2010Prop42
 90
       50
102
RTVSPost2010PropOp42
 70
     0
102
RTVSPost2010Prop43
 90
        3
102
RTVSPost2010PropOp43
 70
     0
102
RTVSPost2010Prop44ColorIndex
 90
        5
102
RTVSPost2010Prop44ColorRGB
 90
      255
102
RTVSPost2010PropOp44
 70
     0
102
RTVSPost2010Prop45
280
     0
102
RTVSPost2010PropOp45
 70
     0
102
RTVSPost2010Prop46
 90
       50
102
RTVSPost2010PropOp46
 70
     0
102
RTVSPost2010Prop47
 90
       50
102
RTVSPost2010PropOp47
 70
     0
102
RTVSPost2010Prop48
 90
       50
102
RTVSPost2010PropOp48
 70
     0
102
RTVSPost2010Prop49
280
     0
102
RTVSPost2010PropOp49
 70
     0
102
RTVSPost2010Prop50
 90
       50
102
RTVSPost2010PropOp50
 70
     0
102
RTVSPost2010Prop51ColorIndex
 90
      256
102
RTVSPost2010Prop51ColorRGB
 90
-16777216
102
RTVSPost2010PropOp51
 70
     0
102
RTVSPost2010Prop52
140
1.0
102
RTVSPost2010PropOp52
 70
     0
102
RTVSPost2010Prop53
 90
        2
102
RTVSPost2010PropOp53
 70
     0
102
RTVSPost2010Prop54
  1
strokes_ogs.tif
102
RTVSPost2010PropOp54
 70
     0
102
RTVSPost2010Prop55
280
     0
102
RTVSPost2010PropOp55
 70
     0
102
RTVSPost2010Prop56
140
1.0
102
RTVSPost2010PropOp56
 70
     0
102
RTVSPost2010Prop57
140
1.0
102
RTVSPost2010PropOp57
 70
     0
  0
XRECORD
  5
37CF
102
{ACAD_REACTORS
330
37CE
102
}
330
37CE
100
AcDbXrecord
280
     1
102
RTVSPropertyOp0
 70
     1
102
RTVSPropertyOp1
 70
     1
102
RTVSPropertyOp2
 70
     1
102
RTVSPropertyOp3
 70
     1
102
RTVSPropertyOp4
 70
     1
102
RTVSPropertyOp5
 70
     1
102
RTVSPropertyOp6
 70
     1
102
RTVSPropertyOp7
 70
     1
102
RTVSPropertyOp8
 70
     1
102
RTVSPropertyOp9
 70
     1
102
RTVSPropertyOp10
 70
     1
102
RTVSPropertyOp11
 70
     1
102
RTVSPropertyOp12
 70
     1
102
RTVSPropertyOp13
 70
     1
102
RTVSPropertyOp14
 70
     1
102
RTVSPropertyOp15
 70
     1
102
RTVSPropertyOp16
 70
     1
102
RTVSPropertyOp17
 70
     1
102
RTVSPropertyOp18
 70
     1
102
RTVSPropertyOp19
 70
     1
102
RTVSPropertyOp20
 70
     1
102
RTVSPropertyOp21
 70
     1
102
RTVSPropertyOp22
 70
     1
102
RTVSPropertyOp23
 70
     1
102
RTVSPropertyOp24
 70
     1
102
RTVSPropertyOp25
 70
     1
102
RTVSPropertyOp26
 70
     1
102
RTVSPropertyOp27
 70
     1
102
RTVSPropertyOp28
 70
     1
102
RTVSPropertyOp29
 70
     1
102
RTVSPropertyOp30
 70
     1
102
RTVSPropertyOp31
 70
     1
102
RTVSPropertyOp32
 70
     1
102
RTVSPropertyOp33
 70
     1
102
RTVSPropertyOp34
 70
     1
102
RTVSPropertyOp35
 70
     1
102
RTVSPropertyOp36
 70
     1
102
RTVSPropertyOp37
 70
     1
102
RTVSPropertyOp38
 70
     1
102
RTVSPropertyOp39
 70
     1
102
RTVSPropertyOp40
 70
     1
102
RTVSPropertyOp41
 70
     1
102
RTVSPropertyOp42
 70
     1
102
RTVSPropertyOp43
 70
     1
102
RTVSPropertyOp44
 70
     1
102
RTVSPropertyOp45
 70
     1
102
RTVSPropertyOp46
 70
     1
102
RTVSPropertyOp47
 70
     1
102
RTVSPropertyOp48
 70
     1
102
RTVSPropertyOp49
 70
     1
102
RTVSPropertyOp50
 70
     1
102
RTVSPropertyOp51
 70
     0
102
RTVSPropertyOp52
 70
     0
102
RTVSPropertyOp53
 70
     1
102
RTVSPropertyOp54
 70
     1
102
RTVSPropertyOp55
 70
     1
102
RTVSPropertyOp56
 70
     1
102
RTVSPropertyOp57
 70
     1
102
RTVSPost2010Prop28
280
     0
102
RTVSPost2010PropOp28
 70
     1
102
RTVSPost2010Prop29
280
     1
102
RTVSPost2010PropOp29
 70
     1
102
RTVSPost2010Prop30
280
     1
102
RTVSPost2010PropOp30
 70
     1
102
RTVSPost2010Prop31
280
     0
102
RTVSPost2010PropOp31
 70
     1
102
RTVSPost2010Prop32
280
     0
102
RTVSPost2010PropOp32
 70
     1
102
RTVSPost2010Prop33
280
     0
102
RTVSPost2010PropOp33
 70
     1
102
RTVSPost2010Prop34
280
     0
102
RTVSPost2010PropOp34
 70
     1
102
RTVSPost2010Prop35
280
     0
102
RTVSPost2010PropOp35
 70
     1
102
RTVSPost2010Prop36
280
     0
102
RTVSPost2010PropOp36
 70
     1
102
RTVSPost2010Prop37
 90
       50
102
RTVSPost2010PropOp37
 70
     1
102
RTVSPost2010Prop38
140
0.0
102
RTVSPost2010PropOp38
 70
     1
102
RTVSPost2010Prop39
140
1.0
102
RTVSPost2010PropOp39
 70
     1
102
RTVSPost2010Prop40
 90
        0
102
RTVSPost2010PropOp40
 70
     1
102
RTVSPost2010Prop41ColorIndex
 90
       18
102
RTVSPost2010Prop41ColorRGB
 90
        0
102
RTVSPost2010PropOp41
 70
     1
102
RTVSPost2010Prop42
 90
       50
102
RTVSPost2010PropOp42
 70
     1
102
RTVSPost2010Prop43
 90
        3
102
RTVSPost2010PropOp43
 70
     1
102
RTVSPost2010Prop44ColorIndex
 90
        5
102
RTVSPost2010Prop44ColorRGB
 90
      255
102
RTVSPost2010PropOp44
 70
     1
102
RTVSPost2010Prop45
280
     0
102
RTVSPost2010PropOp45
 70
     1
102
RTVSPost2010Prop46
 90
       50
102
RTVSPost2010PropOp46
 70
     1
102
RTVSPost2010Prop47
 90
       50
102
RTVSPost2010PropOp47
 70
     1
102
RTVSPost2010Prop48
 90
       50
102
RTVSPost2010PropOp48
 70
     1
102
RTVSPost2010Prop49
280
     0
102
RTVSPost2010PropOp49
 70
     1
102
RTVSPost2010Prop50
 90
       50
102
RTVSPost2010PropOp50
 70
     1
102
RTVSPost2010Prop51ColorIndex
 90
      256
102
RTVSPost2010Prop51ColorRGB
 90
-16777216
102
RTVSPost2010PropOp51
 70
     0
102
RTVSPost2010Prop52
140
1.0
102
RTVSPost2010PropOp52
 70
     0
102
RTVSPost2010Prop53
 90
        2
102
RTVSPost2010PropOp53
 70
     1
102
RTVSPost2010Prop54
  1
strokes_ogs.tif
102
RTVSPost2010PropOp54
 70
     1
102
RTVSPost2010Prop55
280
     0
102
RTVSPost2010PropOp55
 70
     1
102
RTVSPost2010Prop56
140
1.0
102
RTVSPost2010PropOp56
 70
     1
102
RTVSPost2010Prop57
140
1.0
102
RTVSPost2010PropOp57
 70
     1
  0
XRECORD
  5
37D7
102
{ACAD_REACTORS
330
37D6
102
}
330
37D6
100
AcDbXrecord
280
     1
102
RTVSPropertyOp0
 70
     0
102
RTVSPropertyOp1
 70
     0
102
RTVSPropertyOp2
 70
     0
102
RTVSPropertyOp3
 70
     0
102
RTVSPropertyOp4
 70
     0
102
RTVSPropertyOp5
 70
     0
102
RTVSPropertyOp6
 70
     0
102
RTVSPropertyOp7
 70
     0
102
RTVSPropertyOp8
 70
     0
102
RTVSPropertyOp9
 70
     0
102
RTVSPropertyOp10
 70
     0
102
RTVSPropertyOp11
 70
     0
102
RTVSPropertyOp12
 70
     0
102
RTVSPropertyOp13
 70
     0
102
RTVSPropertyOp14
 70
     2
102
RTVSPropertyOp15
 70
     0
102
RTVSPropertyOp16
 70
     0
102
RTVSPropertyOp17
 70
     0
102
RTVSPropertyOp18
 70
     0
102
RTVSPropertyOp19
 70
     0
102
RTVSPropertyOp20
 70
     0
102
RTVSPropertyOp21
 70
     0
102
RTVSPropertyOp22
 70
     0
102
RTVSPropertyOp23
 70
     0
102
RTVSPropertyOp24
 70
     0
102
RTVSPropertyOp25
 70
     0
102
RTVSPropertyOp26
 70
     0
102
RTVSPropertyOp27
 70
     0
102
RTVSPropertyOp28
 70
     0
102
RTVSPropertyOp29
 70
     0
102
RTVSPropertyOp30
 70
     0
102
RTVSPropertyOp31
 70
     0
102
RTVSPropertyOp32
 70
     0
102
RTVSPropertyOp33
 70
     0
102
RTVSPropertyOp34
 70
     0
102
RTVSPropertyOp35
 70
     0
102
RTVSPropertyOp36
 70
     0
102
RTVSPropertyOp37
 70
     0
102
RTVSPropertyOp38
 70
     0
102
RTVSPropertyOp39
 70
     0
102
RTVSPropertyOp40
 70
     0
102
RTVSPropertyOp41
 70
     0
102
RTVSPropertyOp42
 70
     0
102
RTVSPropertyOp43
 70
     0
102
RTVSPropertyOp44
 70
     0
102
RTVSPropertyOp45
 70
     0
102
RTVSPropertyOp46
 70
     0
102
RTVSPropertyOp47
 70
     0
102
RTVSPropertyOp48
 70
     0
102
RTVSPropertyOp49
 70
     0
102
RTVSPropertyOp50
 70
     0
102
RTVSPropertyOp51
 70
     0
102
RTVSPropertyOp52
 70
     0
102
RTVSPropertyOp53
 70
     0
102
RTVSPropertyOp54
 70
     0
102
RTVSPropertyOp55
 70
     0
102
RTVSPropertyOp56
 70
     0
102
RTVSPropertyOp57
 70
     0
102
RTVSPost2010Prop28
280
     0
102
RTVSPost2010PropOp28
 70
     0
102
RTVSPost2010Prop29
280
     1
102
RTVSPost2010PropOp29
 70
     0
102
RTVSPost2010Prop30
280
     1
102
RTVSPost2010PropOp30
 70
     0
102
RTVSPost2010Prop31
280
     0
102
RTVSPost2010PropOp31
 70
     0
102
RTVSPost2010Prop32
280
     0
102
RTVSPost2010PropOp32
 70
     0
102
RTVSPost2010Prop33
280
     0
102
RTVSPost2010PropOp33
 70
     0
102
RTVSPost2010Prop34
280
     0
102
RTVSPost2010PropOp34
 70
     0
102
RTVSPost2010Prop35
280
     0
102
RTVSPost2010PropOp35
 70
     0
102
RTVSPost2010Prop36
280
     0
102
RTVSPost2010PropOp36
 70
     0
102
RTVSPost2010Prop37
 90
       50
102
RTVSPost2010PropOp37
 70
     0
102
RTVSPost2010Prop38
140
0.0
102
RTVSPost2010PropOp38
 70
     0
102
RTVSPost2010Prop39
140
1.0
102
RTVSPost2010PropOp39
 70
     0
102
RTVSPost2010Prop40
 90
        0
102
RTVSPost2010PropOp40
 70
     0
102
RTVSPost2010Prop41ColorIndex
 90
       18
102
RTVSPost2010Prop41ColorRGB
 90
        0
102
RTVSPost2010PropOp41
 70
     0
102
RTVSPost2010Prop42
 90
       50
102
RTVSPost2010PropOp42
 70
     0
102
RTVSPost2010Prop43
 90
        3
102
RTVSPost2010PropOp43
 70
     0
102
RTVSPost2010Prop44ColorIndex
 90
        5
102
RTVSPost2010Prop44ColorRGB
 90
      255
102
RTVSPost2010PropOp44
 70
     0
102
RTVSPost2010Prop45
280
     0
102
RTVSPost2010PropOp45
 70
     0
102
RTVSPost2010Prop46
 90
       50
102
RTVSPost2010PropOp46
 70
     0
102
RTVSPost2010Prop47
 90
       50
102
RTVSPost2010PropOp47
 70
     0
102
RTVSPost2010Prop48
 90
       50
102
RTVSPost2010PropOp48
 70
     0
102
RTVSPost2010Prop49
280
     0
102
RTVSPost2010PropOp49
 70
     0
102
RTVSPost2010Prop50
 90
       50
102
RTVSPost2010PropOp50
 70
     0
102
RTVSPost2010Prop51ColorIndex
 90
      256
102
RTVSPost2010Prop51ColorRGB
 90
-16777216
102
RTVSPost2010PropOp51
 70
     0
102
RTVSPost2010Prop52
140
1.0
102
RTVSPost2010PropOp52
 70
     0
102
RTVSPost2010Prop53
 90
        2
102
RTVSPost2010PropOp53
 70
     0
102
RTVSPost2010Prop54
  1
strokes_ogs.tif
102
RTVSPost2010PropOp54
 70
     0
102
RTVSPost2010Prop55
280
     0
102
RTVSPost2010PropOp55
 70
     0
102
RTVSPost2010Prop56
140
1.0
102
RTVSPost2010PropOp56
 70
     0
102
RTVSPost2010Prop57
140
1.0
102
RTVSPost2010PropOp57
 70
     0
  0
XRECORD
  5
37C5
102
{ACAD_REACTORS
330
37C4
102
}
330
37C4
100
AcDbXrecord
280
     1
102
RTVSPropertyOp0
 70
     1
102
RTVSPropertyOp1
 70
     1
102
RTVSPropertyOp2
 70
     1
102
RTVSPropertyOp3
 70
     1
102
RTVSPropertyOp4
 70
     1
102
RTVSPropertyOp5
 70
     1
102
RTVSPropertyOp6
 70
     1
102
RTVSPropertyOp7
 70
     1
102
RTVSPropertyOp8
 70
     1
102
RTVSPropertyOp9
 70
     1
102
RTVSPropertyOp10
 70
     1
102
RTVSPropertyOp11
 70
     1
102
RTVSPropertyOp12
 70
     1
102
RTVSPropertyOp13
 70
     1
102
RTVSPropertyOp14
 70
     1
102
RTVSPropertyOp15
 70
     1
102
RTVSPropertyOp16
 70
     1
102
RTVSPropertyOp17
 70
     1
102
RTVSPropertyOp18
 70
     1
102
RTVSPropertyOp19
 70
     1
102
RTVSPropertyOp20
 70
     1
102
RTVSPropertyOp21
 70
     1
102
RTVSPropertyOp22
 70
     1
102
RTVSPropertyOp23
 70
     1
102
RTVSPropertyOp24
 70
     1
102
RTVSPropertyOp25
 70
     1
102
RTVSPropertyOp26
 70
     1
102
RTVSPropertyOp27
 70
     1
102
RTVSPropertyOp28
 70
     1
102
RTVSPropertyOp29
 70
     1
102
RTVSPropertyOp30
 70
     1
102
RTVSPropertyOp31
 70
     1
102
RTVSPropertyOp32
 70
     1
102
RTVSPropertyOp33
 70
     1
102
RTVSPropertyOp34
 70
     1
102
RTVSPropertyOp35
 70
     1
102
RTVSPropertyOp36
 70
     1
102
RTVSPropertyOp37
 70
     1
102
RTVSPropertyOp38
 70
     1
102
RTVSPropertyOp39
 70
     1
102
RTVSPropertyOp40
 70
     1
102
RTVSPropertyOp41
 70
     1
102
RTVSPropertyOp42
 70
     1
102
RTVSPropertyOp43
 70
     1
102
RTVSPropertyOp44
 70
     1
102
RTVSPropertyOp45
 70
     1
102
RTVSPropertyOp46
 70
     1
102
RTVSPropertyOp47
 70
     1
102
RTVSPropertyOp48
 70
     1
102
RTVSPropertyOp49
 70
     1
102
RTVSPropertyOp50
 70
     1
102
RTVSPropertyOp51
 70
     0
102
RTVSPropertyOp52
 70
     0
102
RTVSPropertyOp53
 70
     1
102
RTVSPropertyOp54
 70
     1
102
RTVSPropertyOp55
 70
     1
102
RTVSPropertyOp56
 70
     1
102
RTVSPropertyOp57
 70
     1
102
RTVSPost2010Prop28
280
     0
102
RTVSPost2010PropOp28
 70
     1
102
RTVSPost2010Prop29
280
     1
102
RTVSPost2010PropOp29
 70
     1
102
RTVSPost2010Prop30
280
     1
102
RTVSPost2010PropOp30
 70
     1
102
RTVSPost2010Prop31
280
     0
102
RTVSPost2010PropOp31
 70
     1
102
RTVSPost2010Prop32
280
     0
102
RTVSPost2010PropOp32
 70
     1
102
RTVSPost2010Prop33
280
     0
102
RTVSPost2010PropOp33
 70
     1
102
RTVSPost2010Prop34
280
     0
102
RTVSPost2010PropOp34
 70
     1
102
RTVSPost2010Prop35
280
     0
102
RTVSPost2010PropOp35
 70
     1
102
RTVSPost2010Prop36
280
     0
102
RTVSPost2010PropOp36
 70
     1
102
RTVSPost2010Prop37
 90
       50
102
RTVSPost2010PropOp37
 70
     1
102
RTVSPost2010Prop38
140
0.0
102
RTVSPost2010PropOp38
 70
     1
102
RTVSPost2010Prop39
140
1.0
102
RTVSPost2010PropOp39
 70
     1
102
RTVSPost2010Prop40
 90
        0
102
RTVSPost2010PropOp40
 70
     1
102
RTVSPost2010Prop41ColorIndex
 90
       18
102
RTVSPost2010Prop41ColorRGB
 90
        0
102
RTVSPost2010PropOp41
 70
     1
102
RTVSPost2010Prop42
 90
       50
102
RTVSPost2010PropOp42
 70
     1
102
RTVSPost2010Prop43
 90
        3
102
RTVSPost2010PropOp43
 70
     1
102
RTVSPost2010Prop44ColorIndex
 90
        5
102
RTVSPost2010Prop44ColorRGB
 90
      255
102
RTVSPost2010PropOp44
 70
     1
102
RTVSPost2010Prop45
280
     0
102
RTVSPost2010PropOp45
 70
     1
102
RTVSPost2010Prop46
 90
       50
102
RTVSPost2010PropOp46
 70
     1
102
RTVSPost2010Prop47
 90
       50
102
RTVSPost2010PropOp47
 70
     1
102
RTVSPost2010Prop48
 90
       50
102
RTVSPost2010PropOp48
 70
     1
102
RTVSPost2010Prop49
280
     0
102
RTVSPost2010PropOp49
 70
     1
102
RTVSPost2010Prop50
 90
       50
102
RTVSPost2010PropOp50
 70
     1
102
RTVSPost2010Prop51ColorIndex
 90
      256
102
RTVSPost2010Prop51ColorRGB
 90
-16777216
102
RTVSPost2010PropOp51
 70
     0
102
RTVSPost2010Prop52
140
1.0
102
RTVSPost2010PropOp52
 70
     0
102
RTVSPost2010Prop53
 90
        2
102
RTVSPost2010PropOp53
 70
     1
102
RTVSPost2010Prop54
  1
strokes_ogs.tif
102
RTVSPost2010PropOp54
 70
     1
102
RTVSPost2010Prop55
280
     0
102
RTVSPost2010PropOp55
 70
     1
102
RTVSPost2010Prop56
140
1.0
102
RTVSPost2010PropOp56
 70
     1
102
RTVSPost2010Prop57
140
1.0
102
RTVSPost2010PropOp57
 70
     1
  0
XRECORD
  5
37E3
102
{ACAD_REACTORS
330
37E2
102
}
330
37E2
100
AcDbXrecord
280
     1
102
RTVSPropertyOp0
 70
     1
102
RTVSPropertyOp1
 70
     1
102
RTVSPropertyOp2
 70
     1
102
RTVSPropertyOp3
 70
     1
102
RTVSPropertyOp4
 70
     1
102
RTVSPropertyOp5
 70
     1
102
RTVSPropertyOp6
 70
     1
102
RTVSPropertyOp7
 70
     1
102
RTVSPropertyOp8
 70
     1
102
RTVSPropertyOp9
 70
     1
102
RTVSPropertyOp10
 70
     1
102
RTVSPropertyOp11
 70
     1
102
RTVSPropertyOp12
 70
     1
102
RTVSPropertyOp13
 70
     1
102
RTVSPropertyOp14
 70
     1
102
RTVSPropertyOp15
 70
     1
102
RTVSPropertyOp16
 70
     1
102
RTVSPropertyOp17
 70
     1
102
RTVSPropertyOp18
 70
     1
102
RTVSPropertyOp19
 70
     1
102
RTVSPropertyOp20
 70
     1
102
RTVSPropertyOp21
 70
     1
102
RTVSPropertyOp22
 70
     1
102
RTVSPropertyOp23
 70
     1
102
RTVSPropertyOp24
 70
     1
102
RTVSPropertyOp25
 70
     1
102
RTVSPropertyOp26
 70
     1
102
RTVSPropertyOp27
 70
     1
102
RTVSPropertyOp28
 70
     1
102
RTVSPropertyOp29
 70
     1
102
RTVSPropertyOp30
 70
     1
102
RTVSPropertyOp31
 70
     1
102
RTVSPropertyOp32
 70
     1
102
RTVSPropertyOp33
 70
     1
102
RTVSPropertyOp34
 70
     1
102
RTVSPropertyOp35
 70
     1
102
RTVSPropertyOp36
 70
     1
102
RTVSPropertyOp37
 70
     1
102
RTVSPropertyOp38
 70
     1
102
RTVSPropertyOp39
 70
     1
102
RTVSPropertyOp40
 70
     1
102
RTVSPropertyOp41
 70
     1
102
RTVSPropertyOp42
 70
     1
102
RTVSPropertyOp43
 70
     1
102
RTVSPropertyOp44
 70
     1
102
RTVSPropertyOp45
 70
     1
102
RTVSPropertyOp46
 70
     1
102
RTVSPropertyOp47
 70
     1
102
RTVSPropertyOp48
 70
     1
102
RTVSPropertyOp49
 70
     1
102
RTVSPropertyOp50
 70
     1
102
RTVSPropertyOp51
 70
     0
102
RTVSPropertyOp52
 70
     0
102
RTVSPropertyOp53
 70
     1
102
RTVSPropertyOp54
 70
     1
102
RTVSPropertyOp55
 70
     1
102
RTVSPropertyOp56
 70
     1
102
RTVSPropertyOp57
 70
     1
102
RTVSPost2010Prop28
280
     0
102
RTVSPost2010PropOp28
 70
     1
102
RTVSPost2010Prop29
280
     1
102
RTVSPost2010PropOp29
 70
     1
102
RTVSPost2010Prop30
280
     1
102
RTVSPost2010PropOp30
 70
     1
102
RTVSPost2010Prop31
280
     0
102
RTVSPost2010PropOp31
 70
     1
102
RTVSPost2010Prop32
280
     0
102
RTVSPost2010PropOp32
 70
     1
102
RTVSPost2010Prop33
280
     0
102
RTVSPost2010PropOp33
 70
     1
102
RTVSPost2010Prop34
280
     0
102
RTVSPost2010PropOp34
 70
     1
102
RTVSPost2010Prop35
280
     0
102
RTVSPost2010PropOp35
 70
     1
102
RTVSPost2010Prop36
280
     0
102
RTVSPost2010PropOp36
 70
     1
102
RTVSPost2010Prop37
 90
       50
102
RTVSPost2010PropOp37
 70
     1
102
RTVSPost2010Prop38
140
0.0
102
RTVSPost2010PropOp38
 70
     1
102
RTVSPost2010Prop39
140
1.0
102
RTVSPost2010PropOp39
 70
     1
102
RTVSPost2010Prop40
 90
        0
102
RTVSPost2010PropOp40
 70
     1
102
RTVSPost2010Prop41ColorIndex
 90
       18
102
RTVSPost2010Prop41ColorRGB
 90
        0
102
RTVSPost2010PropOp41
 70
     1
102
RTVSPost2010Prop42
 90
       50
102
RTVSPost2010PropOp42
 70
     1
102
RTVSPost2010Prop43
 90
        3
102
RTVSPost2010PropOp43
 70
     1
102
RTVSPost2010Prop44ColorIndex
 90
        5
102
RTVSPost2010Prop44ColorRGB
 90
      255
102
RTVSPost2010PropOp44
 70
     1
102
RTVSPost2010Prop45
280
     0
102
RTVSPost2010PropOp45
 70
     1
102
RTVSPost2010Prop46
 90
       50
102
RTVSPost2010PropOp46
 70
     1
102
RTVSPost2010Prop47
 90
       50
102
RTVSPost2010PropOp47
 70
     1
102
RTVSPost2010Prop48
 90
       50
102
RTVSPost2010PropOp48
 70
     1
102
RTVSPost2010Prop49
280
     0
102
RTVSPost2010PropOp49
 70
     1
102
RTVSPost2010Prop50
 90
       50
102
RTVSPost2010PropOp50
 70
     1
102
RTVSPost2010Prop51ColorIndex
 90
      256
102
RTVSPost2010Prop51ColorRGB
 90
-16777216
102
RTVSPost2010PropOp51
 70
     0
102
RTVSPost2010Prop52
140
1.0
102
RTVSPost2010PropOp52
 70
     0
102
RTVSPost2010Prop53
 90
        2
102
RTVSPost2010PropOp53
 70
     1
102
RTVSPost2010Prop54
  1
strokes_ogs.tif
102
RTVSPost2010PropOp54
 70
     1
102
RTVSPost2010Prop55
280
     0
102
RTVSPost2010PropOp55
 70
     1
102
RTVSPost2010Prop56
140
1.0
102
RTVSPost2010PropOp56
 70
     1
102
RTVSPost2010Prop57
140
1.0
102
RTVSPost2010PropOp57
 70
     1
  0
XRECORD
  5
37E1
102
{ACAD_REACTORS
330
37E0
102
}
330
37E0
100
AcDbXrecord
280
     1
102
RTVSPropertyOp0
 70
     1
102
RTVSPropertyOp1
 70
     1
102
RTVSPropertyOp2
 70
     1
102
RTVSPropertyOp3
 70
     1
102
RTVSPropertyOp4
 70
     1
102
RTVSPropertyOp5
 70
     1
102
RTVSPropertyOp6
 70
     1
102
RTVSPropertyOp7
 70
     1
102
RTVSPropertyOp8
 70
     1
102
RTVSPropertyOp9
 70
     1
102
RTVSPropertyOp10
 70
     1
102
RTVSPropertyOp11
 70
     1
102
RTVSPropertyOp12
 70
     1
102
RTVSPropertyOp13
 70
     1
102
RTVSPropertyOp14
 70
     1
102
RTVSPropertyOp15
 70
     1
102
RTVSPropertyOp16
 70
     1
102
RTVSPropertyOp17
 70
     1
102
RTVSPropertyOp18
 70
     1
102
RTVSPropertyOp19
 70
     1
102
RTVSPropertyOp20
 70
     1
102
RTVSPropertyOp21
 70
     1
102
RTVSPropertyOp22
 70
     1
102
RTVSPropertyOp23
 70
     1
102
RTVSPropertyOp24
 70
     1
102
RTVSPropertyOp25
 70
     1
102
RTVSPropertyOp26
 70
     1
102
RTVSPropertyOp27
 70
     1
102
RTVSPropertyOp28
 70
     1
102
RTVSPropertyOp29
 70
     1
102
RTVSPropertyOp30
 70
     1
102
RTVSPropertyOp31
 70
     1
102
RTVSPropertyOp32
 70
     1
102
RTVSPropertyOp33
 70
     1
102
RTVSPropertyOp34
 70
     1
102
RTVSPropertyOp35
 70
     1
102
RTVSPropertyOp36
 70
     1
102
RTVSPropertyOp37
 70
     1
102
RTVSPropertyOp38
 70
     1
102
RTVSPropertyOp39
 70
     1
102
RTVSPropertyOp40
 70
     1
102
RTVSPropertyOp41
 70
     1
102
RTVSPropertyOp42
 70
     1
102
RTVSPropertyOp43
 70
     1
102
RTVSPropertyOp44
 70
     1
102
RTVSPropertyOp45
 70
     1
102
RTVSPropertyOp46
 70
     1
102
RTVSPropertyOp47
 70
     1
102
RTVSPropertyOp48
 70
     1
102
RTVSPropertyOp49
 70
     1
102
RTVSPropertyOp50
 70
     1
102
RTVSPropertyOp51
 70
     0
102
RTVSPropertyOp52
 70
     0
102
RTVSPropertyOp53
 70
     1
102
RTVSPropertyOp54
 70
     1
102
RTVSPropertyOp55
 70
     1
102
RTVSPropertyOp56
 70
     1
102
RTVSPropertyOp57
 70
     1
102
RTVSPost2010Prop28
280
     0
102
RTVSPost2010PropOp28
 70
     1
102
RTVSPost2010Prop29
280
     1
102
RTVSPost2010PropOp29
 70
     1
102
RTVSPost2010Prop30
280
     1
102
RTVSPost2010PropOp30
 70
     1
102
RTVSPost2010Prop31
280
     0
102
RTVSPost2010PropOp31
 70
     1
102
RTVSPost2010Prop32
280
     0
102
RTVSPost2010PropOp32
 70
     1
102
RTVSPost2010Prop33
280
     0
102
RTVSPost2010PropOp33
 70
     1
102
RTVSPost2010Prop34
280
     0
102
RTVSPost2010PropOp34
 70
     1
102
RTVSPost2010Prop35
280
     0
102
RTVSPost2010PropOp35
 70
     1
102
RTVSPost2010Prop36
280
     0
102
RTVSPost2010PropOp36
 70
     1
102
RTVSPost2010Prop37
 90
       50
102
RTVSPost2010PropOp37
 70
     1
102
RTVSPost2010Prop38
140
0.0
102
RTVSPost2010PropOp38
 70
     1
102
RTVSPost2010Prop39
140
1.0
102
RTVSPost2010PropOp39
 70
     1
102
RTVSPost2010Prop40
 90
        0
102
RTVSPost2010PropOp40
 70
     1
102
RTVSPost2010Prop41ColorIndex
 90
       18
102
RTVSPost2010Prop41ColorRGB
 90
        0
102
RTVSPost2010PropOp41
 70
     1
102
RTVSPost2010Prop42
 90
       50
102
RTVSPost2010PropOp42
 70
     1
102
RTVSPost2010Prop43
 90
        3
102
RTVSPost2010PropOp43
 70
     1
102
RTVSPost2010Prop44ColorIndex
 90
        5
102
RTVSPost2010Prop44ColorRGB
 90
      255
102
RTVSPost2010PropOp44
 70
     1
102
RTVSPost2010Prop45
280
     0
102
RTVSPost2010PropOp45
 70
     1
102
RTVSPost2010Prop46
 90
       50
102
RTVSPost2010PropOp46
 70
     1
102
RTVSPost2010Prop47
 90
       50
102
RTVSPost2010PropOp47
 70
     1
102
RTVSPost2010Prop48
 90
       50
102
RTVSPost2010PropOp48
 70
     1
102
RTVSPost2010Prop49
280
     0
102
RTVSPost2010PropOp49
 70
     1
102
RTVSPost2010Prop50
 90
       50
102
RTVSPost2010PropOp50
 70
     1
102
RTVSPost2010Prop51ColorIndex
 90
      256
102
RTVSPost2010Prop51ColorRGB
 90
-16777216
102
RTVSPost2010PropOp51
 70
     0
102
RTVSPost2010Prop52
140
1.0
102
RTVSPost2010PropOp52
 70
     0
102
RTVSPost2010Prop53
 90
        2
102
RTVSPost2010PropOp53
 70
     1
102
RTVSPost2010Prop54
  1
strokes_ogs.tif
102
RTVSPost2010PropOp54
 70
     1
102
RTVSPost2010Prop55
280
     0
102
RTVSPost2010PropOp55
 70
     1
102
RTVSPost2010Prop56
140
1.0
102
RTVSPost2010PropOp56
 70
     1
102
RTVSPost2010Prop57
140
1.0
102
RTVSPost2010PropOp57
 70
     1
  0
XRECORD
  5
37DB
102
{ACAD_REACTORS
330
37DA
102
}
330
37DA
100
AcDbXrecord
280
     1
102
RTVSPropertyOp0
 70
     1
102
RTVSPropertyOp1
 70
     1
102
RTVSPropertyOp2
 70
     1
102
RTVSPropertyOp3
 70
     1
102
RTVSPropertyOp4
 70
     1
102
RTVSPropertyOp5
 70
     1
102
RTVSPropertyOp6
 70
     1
102
RTVSPropertyOp7
 70
     1
102
RTVSPropertyOp8
 70
     1
102
RTVSPropertyOp9
 70
     1
102
RTVSPropertyOp10
 70
     1
102
RTVSPropertyOp11
 70
     1
102
RTVSPropertyOp12
 70
     1
102
RTVSPropertyOp13
 70
     1
102
RTVSPropertyOp14
 70
     1
102
RTVSPropertyOp15
 70
     1
102
RTVSPropertyOp16
 70
     1
102
RTVSPropertyOp17
 70
     1
102
RTVSPropertyOp18
 70
     1
102
RTVSPropertyOp19
 70
     1
102
RTVSPropertyOp20
 70
     1
102
RTVSPropertyOp21
 70
     1
102
RTVSPropertyOp22
 70
     1
102
RTVSPropertyOp23
 70
     1
102
RTVSPropertyOp24
 70
     1
102
RTVSPropertyOp25
 70
     1
102
RTVSPropertyOp26
 70
     1
102
RTVSPropertyOp27
 70
     1
102
RTVSPropertyOp28
 70
     1
102
RTVSPropertyOp29
 70
     1
102
RTVSPropertyOp30
 70
     1
102
RTVSPropertyOp31
 70
     1
102
RTVSPropertyOp32
 70
     1
102
RTVSPropertyOp33
 70
     1
102
RTVSPropertyOp34
 70
     1
102
RTVSPropertyOp35
 70
     1
102
RTVSPropertyOp36
 70
     1
102
RTVSPropertyOp37
 70
     1
102
RTVSPropertyOp38
 70
     1
102
RTVSPropertyOp39
 70
     1
102
RTVSPropertyOp40
 70
     1
102
RTVSPropertyOp41
 70
     1
102
RTVSPropertyOp42
 70
     1
102
RTVSPropertyOp43
 70
     1
102
RTVSPropertyOp44
 70
     1
102
RTVSPropertyOp45
 70
     1
102
RTVSPropertyOp46
 70
     1
102
RTVSPropertyOp47
 70
     1
102
RTVSPropertyOp48
 70
     1
102
RTVSPropertyOp49
 70
     1
102
RTVSPropertyOp50
 70
     1
102
RTVSPropertyOp51
 70
     0
102
RTVSPropertyOp52
 70
     0
102
RTVSPropertyOp53
 70
     1
102
RTVSPropertyOp54
 70
     1
102
RTVSPropertyOp55
 70
     1
102
RTVSPropertyOp56
 70
     1
102
RTVSPropertyOp57
 70
     1
102
RTVSPost2010Prop28
280
     0
102
RTVSPost2010PropOp28
 70
     1
102
RTVSPost2010Prop29
280
     1
102
RTVSPost2010PropOp29
 70
     1
102
RTVSPost2010Prop30
280
     1
102
RTVSPost2010PropOp30
 70
     1
102
RTVSPost2010Prop31
280
     0
102
RTVSPost2010PropOp31
 70
     1
102
RTVSPost2010Prop32
280
     0
102
RTVSPost2010PropOp32
 70
     1
102
RTVSPost2010Prop33
280
     0
102
RTVSPost2010PropOp33
 70
     1
102
RTVSPost2010Prop34
280
     0
102
RTVSPost2010PropOp34
 70
     1
102
RTVSPost2010Prop35
280
     0
102
RTVSPost2010PropOp35
 70
     1
102
RTVSPost2010Prop36
280
     0
102
RTVSPost2010PropOp36
 70
     1
102
RTVSPost2010Prop37
 90
       50
102
RTVSPost2010PropOp37
 70
     1
102
RTVSPost2010Prop38
140
0.0
102
RTVSPost2010PropOp38
 70
     1
102
RTVSPost2010Prop39
140
1.0
102
RTVSPost2010PropOp39
 70
     1
102
RTVSPost2010Prop40
 90
        0
102
RTVSPost2010PropOp40
 70
     1
102
RTVSPost2010Prop41ColorIndex
 90
       18
102
RTVSPost2010Prop41ColorRGB
 90
        0
102
RTVSPost2010PropOp41
 70
     1
102
RTVSPost2010Prop42
 90
       50
102
RTVSPost2010PropOp42
 70
     1
102
RTVSPost2010Prop43
 90
        3
102
RTVSPost2010PropOp43
 70
     1
102
RTVSPost2010Prop44ColorIndex
 90
        5
102
RTVSPost2010Prop44ColorRGB
 90
      255
102
RTVSPost2010PropOp44
 70
     1
102
RTVSPost2010Prop45
280
     0
102
RTVSPost2010PropOp45
 70
     1
102
RTVSPost2010Prop46
 90
       50
102
RTVSPost2010PropOp46
 70
     1
102
RTVSPost2010Prop47
 90
       50
102
RTVSPost2010PropOp47
 70
     1
102
RTVSPost2010Prop48
 90
       50
102
RTVSPost2010PropOp48
 70
     1
102
RTVSPost2010Prop49
280
     0
102
RTVSPost2010PropOp49
 70
     1
102
RTVSPost2010Prop50
 90
       50
102
RTVSPost2010PropOp50
 70
     1
102
RTVSPost2010Prop51ColorIndex
 90
      256
102
RTVSPost2010Prop51ColorRGB
 90
-16777216
102
RTVSPost2010PropOp51
 70
     0
102
RTVSPost2010Prop52
140
1.0
102
RTVSPost2010PropOp52
 70
     0
102
RTVSPost2010Prop53
 90
        2
102
RTVSPost2010PropOp53
 70
     1
102
RTVSPost2010Prop54
  1
strokes_ogs.tif
102
RTVSPost2010PropOp54
 70
     1
102
RTVSPost2010Prop55
280
     0
102
RTVSPost2010PropOp55
 70
     1
102
RTVSPost2010Prop56
140
1.0
102
RTVSPost2010PropOp56
 70
     1
102
RTVSPost2010Prop57
140
1.0
102
RTVSPost2010PropOp57
 70
     1
  0
XRECORD
  5
37DD
102
{ACAD_REACTORS
330
37DC
102
}
330
37DC
100
AcDbXrecord
280
     1
102
RTVSPropertyOp0
 70
     1
102
RTVSPropertyOp1
 70
     1
102
RTVSPropertyOp2
 70
     1
102
RTVSPropertyOp3
 70
     1
102
RTVSPropertyOp4
 70
     1
102
RTVSPropertyOp5
 70
     1
102
RTVSPropertyOp6
 70
     1
102
RTVSPropertyOp7
 70
     1
102
RTVSPropertyOp8
 70
     1
102
RTVSPropertyOp9
 70
     1
102
RTVSPropertyOp10
 70
     1
102
RTVSPropertyOp11
 70
     1
102
RTVSPropertyOp12
 70
     1
102
RTVSPropertyOp13
 70
     1
102
RTVSPropertyOp14
 70
     1
102
RTVSPropertyOp15
 70
     1
102
RTVSPropertyOp16
 70
     1
102
RTVSPropertyOp17
 70
     1
102
RTVSPropertyOp18
 70
     1
102
RTVSPropertyOp19
 70
     1
102
RTVSPropertyOp20
 70
     1
102
RTVSPropertyOp21
 70
     1
102
RTVSPropertyOp22
 70
     1
102
RTVSPropertyOp23
 70
     1
102
RTVSPropertyOp24
 70
     1
102
RTVSPropertyOp25
 70
     1
102
RTVSPropertyOp26
 70
     1
102
RTVSPropertyOp27
 70
     1
102
RTVSPropertyOp28
 70
     1
102
RTVSPropertyOp29
 70
     1
102
RTVSPropertyOp30
 70
     1
102
RTVSPropertyOp31
 70
     1
102
RTVSPropertyOp32
 70
     1
102
RTVSPropertyOp33
 70
     1
102
RTVSPropertyOp34
 70
     1
102
RTVSPropertyOp35
 70
     1
102
RTVSPropertyOp36
 70
     1
102
RTVSPropertyOp37
 70
     1
102
RTVSPropertyOp38
 70
     1
102
RTVSPropertyOp39
 70
     1
102
RTVSPropertyOp40
 70
     1
102
RTVSPropertyOp41
 70
     1
102
RTVSPropertyOp42
 70
     1
102
RTVSPropertyOp43
 70
     1
102
RTVSPropertyOp44
 70
     1
102
RTVSPropertyOp45
 70
     1
102
RTVSPropertyOp46
 70
     1
102
RTVSPropertyOp47
 70
     1
102
RTVSPropertyOp48
 70
     1
102
RTVSPropertyOp49
 70
     1
102
RTVSPropertyOp50
 70
     1
102
RTVSPropertyOp51
 70
     0
102
RTVSPropertyOp52
 70
     0
102
RTVSPropertyOp53
 70
     1
102
RTVSPropertyOp54
 70
     1
102
RTVSPropertyOp55
 70
     1
102
RTVSPropertyOp56
 70
     1
102
RTVSPropertyOp57
 70
     1
102
RTVSPost2010Prop28
280
     0
102
RTVSPost2010PropOp28
 70
     1
102
RTVSPost2010Prop29
280
     1
102
RTVSPost2010PropOp29
 70
     1
102
RTVSPost2010Prop30
280
     1
102
RTVSPost2010PropOp30
 70
     1
102
RTVSPost2010Prop31
280
     0
102
RTVSPost2010PropOp31
 70
     1
102
RTVSPost2010Prop32
280
     0
102
RTVSPost2010PropOp32
 70
     1
102
RTVSPost2010Prop33
280
     0
102
RTVSPost2010PropOp33
 70
     1
102
RTVSPost2010Prop34
280
     0
102
RTVSPost2010PropOp34
 70
     1
102
RTVSPost2010Prop35
280
     0
102
RTVSPost2010PropOp35
 70
     1
102
RTVSPost2010Prop36
280
     0
102
RTVSPost2010PropOp36
 70
     1
102
RTVSPost2010Prop37
 90
       50
102
RTVSPost2010PropOp37
 70
     1
102
RTVSPost2010Prop38
140
0.0
102
RTVSPost2010PropOp38
 70
     1
102
RTVSPost2010Prop39
140
1.0
102
RTVSPost2010PropOp39
 70
     1
102
RTVSPost2010Prop40
 90
        0
102
RTVSPost2010PropOp40
 70
     1
102
RTVSPost2010Prop41ColorIndex
 90
       18
102
RTVSPost2010Prop41ColorRGB
 90
        0
102
RTVSPost2010PropOp41
 70
     1
102
RTVSPost2010Prop42
 90
       50
102
RTVSPost2010PropOp42
 70
     1
102
RTVSPost2010Prop43
 90
        3
102
RTVSPost2010PropOp43
 70
     1
102
RTVSPost2010Prop44ColorIndex
 90
        5
102
RTVSPost2010Prop44ColorRGB
 90
      255
102
RTVSPost2010PropOp44
 70
     1
102
RTVSPost2010Prop45
280
     0
102
RTVSPost2010PropOp45
 70
     1
102
RTVSPost2010Prop46
 90
       50
102
RTVSPost2010PropOp46
 70
     1
102
RTVSPost2010Prop47
 90
       50
102
RTVSPost2010PropOp47
 70
     1
102
RTVSPost2010Prop48
 90
       50
102
RTVSPost2010PropOp48
 70
     1
102
RTVSPost2010Prop49
280
     0
102
RTVSPost2010PropOp49
 70
     1
102
RTVSPost2010Prop50
 90
       50
102
RTVSPost2010PropOp50
 70
     1
102
RTVSPost2010Prop51ColorIndex
 90
      256
102
RTVSPost2010Prop51ColorRGB
 90
-16777216
102
RTVSPost2010PropOp51
 70
     0
102
RTVSPost2010Prop52
140
1.0
102
RTVSPost2010PropOp52
 70
     0
102
RTVSPost2010Prop53
 90
        2
102
RTVSPost2010PropOp53
 70
     1
102
RTVSPost2010Prop54
  1
strokes_ogs.tif
102
RTVSPost2010PropOp54
 70
     1
102
RTVSPost2010Prop55
280
     0
102
RTVSPost2010PropOp55
 70
     1
102
RTVSPost2010Prop56
140
1.0
102
RTVSPost2010PropOp56
 70
     1
102
RTVSPost2010Prop57
140
1.0
102
RTVSPost2010PropOp57
 70
     1
  0
XRECORD
  5
37CD
102
{ACAD_REACTORS
330
37CC
102
}
330
37CC
100
AcDbXrecord
280
     1
102
RTVSPropertyOp0
 70
     1
102
RTVSPropertyOp1
 70
     1
102
RTVSPropertyOp2
 70
     1
102
RTVSPropertyOp3
 70
     1
102
RTVSPropertyOp4
 70
     1
102
RTVSPropertyOp5
 70
     1
102
RTVSPropertyOp6
 70
     1
102
RTVSPropertyOp7
 70
     1
102
RTVSPropertyOp8
 70
     1
102
RTVSPropertyOp9
 70
     1
102
RTVSPropertyOp10
 70
     1
102
RTVSPropertyOp11
 70
     1
102
RTVSPropertyOp12
 70
     1
102
RTVSPropertyOp13
 70
     1
102
RTVSPropertyOp14
 70
     1
102
RTVSPropertyOp15
 70
     1
102
RTVSPropertyOp16
 70
     1
102
RTVSPropertyOp17
 70
     1
102
RTVSPropertyOp18
 70
     1
102
RTVSPropertyOp19
 70
     1
102
RTVSPropertyOp20
 70
     1
102
RTVSPropertyOp21
 70
     1
102
RTVSPropertyOp22
 70
     1
102
RTVSPropertyOp23
 70
     1
102
RTVSPropertyOp24
 70
     1
102
RTVSPropertyOp25
 70
     1
102
RTVSPropertyOp26
 70
     1
102
RTVSPropertyOp27
 70
     1
102
RTVSPropertyOp28
 70
     1
102
RTVSPropertyOp29
 70
     1
102
RTVSPropertyOp30
 70
     1
102
RTVSPropertyOp31
 70
     1
102
RTVSPropertyOp32
 70
     1
102
RTVSPropertyOp33
 70
     1
102
RTVSPropertyOp34
 70
     1
102
RTVSPropertyOp35
 70
     1
102
RTVSPropertyOp36
 70
     1
102
RTVSPropertyOp37
 70
     1
102
RTVSPropertyOp38
 70
     1
102
RTVSPropertyOp39
 70
     1
102
RTVSPropertyOp40
 70
     1
102
RTVSPropertyOp41
 70
     1
102
RTVSPropertyOp42
 70
     1
102
RTVSPropertyOp43
 70
     1
102
RTVSPropertyOp44
 70
     1
102
RTVSPropertyOp45
 70
     1
102
RTVSPropertyOp46
 70
     1
102
RTVSPropertyOp47
 70
     1
102
RTVSPropertyOp48
 70
     1
102
RTVSPropertyOp49
 70
     1
102
RTVSPropertyOp50
 70
     1
102
RTVSPropertyOp51
 70
     0
102
RTVSPropertyOp52
 70
     0
102
RTVSPropertyOp53
 70
     1
102
RTVSPropertyOp54
 70
     1
102
RTVSPropertyOp55
 70
     1
102
RTVSPropertyOp56
 70
     1
102
RTVSPropertyOp57
 70
     1
102
RTVSPost2010Prop28
280
     0
102
RTVSPost2010PropOp28
 70
     1
102
RTVSPost2010Prop29
280
     1
102
RTVSPost2010PropOp29
 70
     1
102
RTVSPost2010Prop30
280
     1
102
RTVSPost2010PropOp30
 70
     1
102
RTVSPost2010Prop31
280
     0
102
RTVSPost2010PropOp31
 70
     1
102
RTVSPost2010Prop32
280
     0
102
RTVSPost2010PropOp32
 70
     1
102
RTVSPost2010Prop33
280
     0
102
RTVSPost2010PropOp33
 70
     1
102
RTVSPost2010Prop34
280
     0
102
RTVSPost2010PropOp34
 70
     1
102
RTVSPost2010Prop35
280
     0
102
RTVSPost2010PropOp35
 70
     1
102
RTVSPost2010Prop36
280
     0
102
RTVSPost2010PropOp36
 70
     1
102
RTVSPost2010Prop37
 90
       50
102
RTVSPost2010PropOp37
 70
     1
102
RTVSPost2010Prop38
140
0.0
102
RTVSPost2010PropOp38
 70
     1
102
RTVSPost2010Prop39
140
1.0
102
RTVSPost2010PropOp39
 70
     1
102
RTVSPost2010Prop40
 90
        0
102
RTVSPost2010PropOp40
 70
     1
102
RTVSPost2010Prop41ColorIndex
 90
       18
102
RTVSPost2010Prop41ColorRGB
 90
        0
102
RTVSPost2010PropOp41
 70
     1
102
RTVSPost2010Prop42
 90
       50
102
RTVSPost2010PropOp42
 70
     1
102
RTVSPost2010Prop43
 90
        3
102
RTVSPost2010PropOp43
 70
     1
102
RTVSPost2010Prop44ColorIndex
 90
        5
102
RTVSPost2010Prop44ColorRGB
 90
      255
102
RTVSPost2010PropOp44
 70
     1
102
RTVSPost2010Prop45
280
     0
102
RTVSPost2010PropOp45
 70
     1
102
RTVSPost2010Prop46
 90
       50
102
RTVSPost2010PropOp46
 70
     1
102
RTVSPost2010Prop47
 90
       50
102
RTVSPost2010PropOp47
 70
     1
102
RTVSPost2010Prop48
 90
       50
102
RTVSPost2010PropOp48
 70
     1
102
RTVSPost2010Prop49
280
     0
102
RTVSPost2010PropOp49
 70
     1
102
RTVSPost2010Prop50
 90
       50
102
RTVSPost2010PropOp50
 70
     1
102
RTVSPost2010Prop51ColorIndex
 90
      256
102
RTVSPost2010Prop51ColorRGB
 90
-16777216
102
RTVSPost2010PropOp51
 70
     0
102
RTVSPost2010Prop52
140
1.0
102
RTVSPost2010PropOp52
 70
     0
102
RTVSPost2010Prop53
 90
        2
102
RTVSPost2010PropOp53
 70
     1
102
RTVSPost2010Prop54
  1
strokes_ogs.tif
102
RTVSPost2010PropOp54
 70
     1
102
RTVSPost2010Prop55
280
     0
102
RTVSPost2010PropOp55
 70
     1
102
RTVSPost2010Prop56
140
1.0
102
RTVSPost2010PropOp56
 70
     1
102
RTVSPost2010Prop57
140
1.0
102
RTVSPost2010PropOp57
 70
     1
  0
XRECORD
  5
37BF
102
{ACAD_REACTORS
330
37BE
102
}
330
37BE
100
AcDbXrecord
280
     1
102
RTVSPropertyOp0
 70
     1
102
RTVSPropertyOp1
 70
     1
102
RTVSPropertyOp2
 70
     1
102
RTVSPropertyOp3
 70
     1
102
RTVSPropertyOp4
 70
     1
102
RTVSPropertyOp5
 70
     1
102
RTVSPropertyOp6
 70
     1
102
RTVSPropertyOp7
 70
     1
102
RTVSPropertyOp8
 70
     1
102
RTVSPropertyOp9
 70
     1
102
RTVSPropertyOp10
 70
     1
102
RTVSPropertyOp11
 70
     1
102
RTVSPropertyOp12
 70
     1
102
RTVSPropertyOp13
 70
     1
102
RTVSPropertyOp14
 70
     1
102
RTVSPropertyOp15
 70
     1
102
RTVSPropertyOp16
 70
     1
102
RTVSPropertyOp17
 70
     1
102
RTVSPropertyOp18
 70
     1
102
RTVSPropertyOp19
 70
     1
102
RTVSPropertyOp20
 70
     1
102
RTVSPropertyOp21
 70
     1
102
RTVSPropertyOp22
 70
     1
102
RTVSPropertyOp23
 70
     1
102
RTVSPropertyOp24
 70
     1
102
RTVSPropertyOp25
 70
     1
102
RTVSPropertyOp26
 70
     1
102
RTVSPropertyOp27
 70
     1
102
RTVSPropertyOp28
 70
     1
102
RTVSPropertyOp29
 70
     1
102
RTVSPropertyOp30
 70
     1
102
RTVSPropertyOp31
 70
     1
102
RTVSPropertyOp32
 70
     1
102
RTVSPropertyOp33
 70
     1
102
RTVSPropertyOp34
 70
     1
102
RTVSPropertyOp35
 70
     1
102
RTVSPropertyOp36
 70
     1
102
RTVSPropertyOp37
 70
     1
102
RTVSPropertyOp38
 70
     1
102
RTVSPropertyOp39
 70
     1
102
RTVSPropertyOp40
 70
     1
102
RTVSPropertyOp41
 70
     1
102
RTVSPropertyOp42
 70
     1
102
RTVSPropertyOp43
 70
     1
102
RTVSPropertyOp44
 70
     1
102
RTVSPropertyOp45
 70
     1
102
RTVSPropertyOp46
 70
     1
102
RTVSPropertyOp47
 70
     1
102
RTVSPropertyOp48
 70
     1
102
RTVSPropertyOp49
 70
     1
102
RTVSPropertyOp50
 70
     1
102
RTVSPropertyOp51
 70
     0
102
RTVSPropertyOp52
 70
     0
102
RTVSPropertyOp53
 70
     1
102
RTVSPropertyOp54
 70
     1
102
RTVSPropertyOp55
 70
     1
102
RTVSPropertyOp56
 70
     1
102
RTVSPropertyOp57
 70
     1
102
RTVSPost2010Prop28
280
     0
102
RTVSPost2010PropOp28
 70
     1
102
RTVSPost2010Prop29
280
     1
102
RTVSPost2010PropOp29
 70
     1
102
RTVSPost2010Prop30
280
     1
102
RTVSPost2010PropOp30
 70
     1
102
RTVSPost2010Prop31
280
     0
102
RTVSPost2010PropOp31
 70
     1
102
RTVSPost2010Prop32
280
     0
102
RTVSPost2010PropOp32
 70
     1
102
RTVSPost2010Prop33
280
     0
102
RTVSPost2010PropOp33
 70
     1
102
RTVSPost2010Prop34
280
     0
102
RTVSPost2010PropOp34
 70
     1
102
RTVSPost2010Prop35
280
     0
102
RTVSPost2010PropOp35
 70
     1
102
RTVSPost2010Prop36
280
     0
102
RTVSPost2010PropOp36
 70
     1
102
RTVSPost2010Prop37
 90
       50
102
RTVSPost2010PropOp37
 70
     1
102
RTVSPost2010Prop38
140
0.0
102
RTVSPost2010PropOp38
 70
     1
102
RTVSPost2010Prop39
140
1.0
102
RTVSPost2010PropOp39
 70
     1
102
RTVSPost2010Prop40
 90
        0
102
RTVSPost2010PropOp40
 70
     1
102
RTVSPost2010Prop41ColorIndex
 90
       18
102
RTVSPost2010Prop41ColorRGB
 90
        0
102
RTVSPost2010PropOp41
 70
     1
102
RTVSPost2010Prop42
 90
       50
102
RTVSPost2010PropOp42
 70
     1
102
RTVSPost2010Prop43
 90
        3
102
RTVSPost2010PropOp43
 70
     1
102
RTVSPost2010Prop44ColorIndex
 90
        5
102
RTVSPost2010Prop44ColorRGB
 90
      255
102
RTVSPost2010PropOp44
 70
     1
102
RTVSPost2010Prop45
280
     0
102
RTVSPost2010PropOp45
 70
     1
102
RTVSPost2010Prop46
 90
       50
102
RTVSPost2010PropOp46
 70
     1
102
RTVSPost2010Prop47
 90
       50
102
RTVSPost2010PropOp47
 70
     1
102
RTVSPost2010Prop48
 90
       50
102
RTVSPost2010PropOp48
 70
     1
102
RTVSPost2010Prop49
280
     0
102
RTVSPost2010PropOp49
 70
     1
102
RTVSPost2010Prop50
 90
       50
102
RTVSPost2010PropOp50
 70
     1
102
RTVSPost2010Prop51ColorIndex
 90
      256
102
RTVSPost2010Prop51ColorRGB
 90
-16777216
102
RTVSPost2010PropOp51
 70
     0
102
RTVSPost2010Prop52
140
1.0
102
RTVSPost2010PropOp52
 70
     0
102
RTVSPost2010Prop53
 90
        2
102
RTVSPost2010PropOp53
 70
     1
102
RTVSPost2010Prop54
  1
strokes_ogs.tif
102
RTVSPost2010PropOp54
 70
     1
102
RTVSPost2010Prop55
280
     0
102
RTVSPost2010PropOp55
 70
     1
102
RTVSPost2010Prop56
140
1.0
102
RTVSPost2010PropOp56
 70
     1
102
RTVSPost2010Prop57
140
1.0
102
RTVSPost2010PropOp57
 70
     1
  0
XRECORD
  5
37DF
102
{ACAD_REACTORS
330
37DE
102
}
330
37DE
100
AcDbXrecord
280
     1
102
RTVSPropertyOp0
 70
     1
102
RTVSPropertyOp1
 70
     1
102
RTVSPropertyOp2
 70
     1
102
RTVSPropertyOp3
 70
     1
102
RTVSPropertyOp4
 70
     1
102
RTVSPropertyOp5
 70
     1
102
RTVSPropertyOp6
 70
     1
102
RTVSPropertyOp7
 70
     1
102
RTVSPropertyOp8
 70
     1
102
RTVSPropertyOp9
 70
     1
102
RTVSPropertyOp10
 70
     1
102
RTVSPropertyOp11
 70
     1
102
RTVSPropertyOp12
 70
     1
102
RTVSPropertyOp13
 70
     1
102
RTVSPropertyOp14
 70
     1
102
RTVSPropertyOp15
 70
     1
102
RTVSPropertyOp16
 70
     1
102
RTVSPropertyOp17
 70
     1
102
RTVSPropertyOp18
 70
     1
102
RTVSPropertyOp19
 70
     1
102
RTVSPropertyOp20
 70
     1
102
RTVSPropertyOp21
 70
     1
102
RTVSPropertyOp22
 70
     1
102
RTVSPropertyOp23
 70
     1
102
RTVSPropertyOp24
 70
     1
102
RTVSPropertyOp25
 70
     1
102
RTVSPropertyOp26
 70
     1
102
RTVSPropertyOp27
 70
     1
102
RTVSPropertyOp28
 70
     1
102
RTVSPropertyOp29
 70
     1
102
RTVSPropertyOp30
 70
     1
102
RTVSPropertyOp31
 70
     1
102
RTVSPropertyOp32
 70
     1
102
RTVSPropertyOp33
 70
     1
102
RTVSPropertyOp34
 70
     1
102
RTVSPropertyOp35
 70
     1
102
RTVSPropertyOp36
 70
     1
102
RTVSPropertyOp37
 70
     1
102
RTVSPropertyOp38
 70
     1
102
RTVSPropertyOp39
 70
     1
102
RTVSPropertyOp40
 70
     1
102
RTVSPropertyOp41
 70
     1
102
RTVSPropertyOp42
 70
     1
102
RTVSPropertyOp43
 70
     1
102
RTVSPropertyOp44
 70
     1
102
RTVSPropertyOp45
 70
     1
102
RTVSPropertyOp46
 70
     1
102
RTVSPropertyOp47
 70
     1
102
RTVSPropertyOp48
 70
     1
102
RTVSPropertyOp49
 70
     1
102
RTVSPropertyOp50
 70
     1
102
RTVSPropertyOp51
 70
     0
102
RTVSPropertyOp52
 70
     0
102
RTVSPropertyOp53
 70
     1
102
RTVSPropertyOp54
 70
     1
102
RTVSPropertyOp55
 70
     1
102
RTVSPropertyOp56
 70
     1
102
RTVSPropertyOp57
 70
     1
102
RTVSPost2010Prop28
280
     0
102
RTVSPost2010PropOp28
 70
     1
102
RTVSPost2010Prop29
280
     1
102
RTVSPost2010PropOp29
 70
     1
102
RTVSPost2010Prop30
280
     1
102
RTVSPost2010PropOp30
 70
     1
102
RTVSPost2010Prop31
280
     0
102
RTVSPost2010PropOp31
 70
     1
102
RTVSPost2010Prop32
280
     0
102
RTVSPost2010PropOp32
 70
     1
102
RTVSPost2010Prop33
280
     0
102
RTVSPost2010PropOp33
 70
     1
102
RTVSPost2010Prop34
280
     0
102
RTVSPost2010PropOp34
 70
     1
102
RTVSPost2010Prop35
280
     0
102
RTVSPost2010PropOp35
 70
     1
102
RTVSPost2010Prop36
280
     0
102
RTVSPost2010PropOp36
 70
     1
102
RTVSPost2010Prop37
 90
       50
102
RTVSPost2010PropOp37
 70
     1
102
RTVSPost2010Prop38
140
0.0
102
RTVSPost2010PropOp38
 70
     1
102
RTVSPost2010Prop39
140
1.0
102
RTVSPost2010PropOp39
 70
     1
102
RTVSPost2010Prop40
 90
        0
102
RTVSPost2010PropOp40
 70
     1
102
RTVSPost2010Prop41ColorIndex
 90
       18
102
RTVSPost2010Prop41ColorRGB
 90
        0
102
RTVSPost2010PropOp41
 70
     1
102
RTVSPost2010Prop42
 90
       50
102
RTVSPost2010PropOp42
 70
     1
102
RTVSPost2010Prop43
 90
        3
102
RTVSPost2010PropOp43
 70
     1
102
RTVSPost2010Prop44ColorIndex
 90
        5
102
RTVSPost2010Prop44ColorRGB
 90
      255
102
RTVSPost2010PropOp44
 70
     1
102
RTVSPost2010Prop45
280
     0
102
RTVSPost2010PropOp45
 70
     1
102
RTVSPost2010Prop46
 90
       50
102
RTVSPost2010PropOp46
 70
     1
102
RTVSPost2010Prop47
 90
       50
102
RTVSPost2010PropOp47
 70
     1
102
RTVSPost2010Prop48
 90
       50
102
RTVSPost2010PropOp48
 70
     1
102
RTVSPost2010Prop49
280
     0
102
RTVSPost2010PropOp49
 70
     1
102
RTVSPost2010Prop50
 90
       50
102
RTVSPost2010PropOp50
 70
     1
102
RTVSPost2010Prop51ColorIndex
 90
      256
102
RTVSPost2010Prop51ColorRGB
 90
-16777216
102
RTVSPost2010PropOp51
 70
     0
102
RTVSPost2010Prop52
140
1.0
102
RTVSPost2010PropOp52
 70
     0
102
RTVSPost2010Prop53
 90
        2
102
RTVSPost2010PropOp53
 70
     1
102
RTVSPost2010Prop54
  1
strokes_ogs.tif
102
RTVSPost2010PropOp54
 70
     1
102
RTVSPost2010Prop55
280
     0
102
RTVSPost2010PropOp55
 70
     1
102
RTVSPost2010Prop56
140
1.0
102
RTVSPost2010PropOp56
 70
     1
102
RTVSPost2010Prop57
140
1.0
102
RTVSPost2010PropOp57
 70
     1
  0
ENDSEC
  0
EOF
