  0
SECTION
  2
HEADER
  9
$ACADVER
  1
AC1021
  9
$ACADMAINTVER
 70
    25
  9
$DWGCODEPAGE
  3
ANSI_1252
  9
$INSBASE
 10
0.0
 20
0.0
 30
0.0
  9
$EXTMIN
 10
1.000000000000000E+20
 20
1.000000000000000E+20
 30
1.000000000000000E+20
  9
$EXTMAX
 10
-1.000000000000000E+20
 20
-1.000000000000000E+20
 30
-1.000000000000000E+20
  9
$LIMMIN
 10
0.0
 20
0.0
  9
$LIMMAX
 10
12.0
 20
9.0
  9
$ORTHOMODE
 70
     0
  9
$REGENMODE
 70
     1
  9
$FILLMODE
 70
     1
  9
$QTEXTMODE
 70
     0
  9
$MIRRTEXT
 70
     1
  9
$LTSCALE
 40
1.0
  9
$ATTMODE
 70
     1
  9
$TEXTSIZE
 40
0.2
  9
$TRACEWID
 40
0.05
  9
$TEXTSTYLE
  7
Standard
  9
$CLAYER
  8
0
  9
$CELTYPE
  6
ByLayer
  9
$CECOLOR
 62
    18
  9
$CELTSCALE
 40
1.0
  9
$DISPSILH
 70
     0
  9
$DIMSCALE
 40
1.0
  9
$DIMASZ
 40
2.5
  9
$DIMEXO
 40
0.625
  9
$DIMDLI
 40
0.38
  9
$DIMRND
 40
0.0
  9
$DIMDLE
 40
0.0
  9
$DIMEXE
 40
1.25
  9
$DIMTP
 40
0.0
  9
$DIMTM
 40
0.0
  9
$DIMTXT
 40
2.5
  9
$DIMCEN
 40
0.09
  9
$DIMTSZ
 40
0.0
  9
$DIMTOL
 70
     0
  9
$DIMLIM
 70
     0
  9
$DIMTIH
 70
     1
  9
$DIMTOH
 70
     1
  9
$DIMSE1
 70
     0
  9
$DIMSE2
 70
     0
  9
$DIMTAD
 70
     0
  9
$DIMZIN
 70
     8
  9
$DIMBLK
  1

  9
$DIMASO
 70
     1
  9
$DIMSHO
 70
     1
  9
$DIMPOST
  1

  9
$DIMAPOST
  1

  9
$DIMALT
 70
     0
  9
$DIMALTD
 70
     2
  9
$DIMALTF
 40
25.4
  9
$DIMLFAC
 40
1.0
  9
$DIMTOFL
 70
     0
  9
$DIMTVP
 40
0.0
  9
$DIMTIX
 70
     0
  9
$DIMSOXD
 70
     0
  9
$DIMSAH
 70
     0
  9
$DIMBLK1
  1

  9
$DIMBLK2
  1

  9
$DIMSTYLE
  2
Standard
  9
$DIMCLRD
 70
    18
  9
$DIMCLRE
 70
    18
  9
$DIMCLRT
 70
    18
  9
$DIMTFAC
 40
1.0
  9
$DIMGAP
 40
0.625
  9
$DIMJUST
 70
     0
  9
$DIMSD1
 70
     0
  9
$DIMSD2
 70
     0
  9
$DIMTOLJ
 70
     1
  9
$DIMTZIN
 70
     0
  9
$DIMALTZ
 70
     0
  9
$DIMALTTZ
 70
     0
  9
$DIMUPT
 70
     0
  9
$DIMDEC
 70
     4
  9
$DIMTDEC
 70
     4
  9
$DIMALTU
 70
     2
  9
$DIMALTTD
 70
     2
  9
$DIMTXSTY
  7
Standard
  9
$DIMAUNIT
 70
     0
  9
$DIMADEC
 70
     0
  9
$DIMALTRND
 40
0.0
  9
$DIMAZIN
 70
     2
  9
$DIMDSEP
 70
    46
  9
$DIMATFIT
 70
     3
  9
$DIMFRAC
 70
     0
  9
$DIMLDRBLK
  1

  9
$DIMLUNIT
 70
     2
  9
$DIMLWD
 70
    -2
  9
$DIMLWE
 70
    -2
  9
$DIMTMOVE
 70
     0
  9
$DIMFXL
 40
1.0
  9
$DIMFXLON
 70
     0
  9
$DIMJOGANG
 40
0.7853981633974483
  9
$DIMTFILL
 70
     0
  9
$DIMTFILLCLR
 70
     0
  9
$DIMARCSYM
 70
     0
  9
$DIMLTYPE
  6

  9
$DIMLTEX1
  6

  9
$DIMLTEX2
  6

  9
$LUNITS
 70
     2
  9
$LUPREC
 70
     4
  9
$SKETCHINC
 40
0.1
  9
$FILLETRAD
 40
0.5
  9
$AUNITS
 70
     0
  9
$AUPREC
 70
     0
  9
$MENU
  1
.
  9
$ELEVATION
 40
0.0
  9
$PELEVATION
 40
0.0
  9
$THICKNESS
 40
0.0
  9
$LIMCHECK
 70
     0
  9
$CHAMFERA
 40
0.0
  9
$CHAMFERB
 40
0.0
  9
$CHAMFERC
 40
0.0
  9
$CHAMFERD
 40
0.0
  9
$SKPOLY
 70
     0
  9
$TDCREATE
 40
2457053.595870949
  9
$TDUCREATE
 40
2457053.554204282
  9
$TDUPDATE
 40
2457053.595870949
  9
$TDUUPDATE
 40
2457053.554204282
  9
$TDINDWG
 40
0.0000000116
  9
$TDUSRTIMER
 40
0.0000000116
  9
$USRTIMER
 70
     1
  9
$ANGBASE
 50
0.0
  9
$ANGDIR
 70
     0
  9
$PDMODE
 70
     0
  9
$PDSIZE
 40
0.0
  9
$PLINEWID
 40
0.0
  9
$SPLFRAME
 70
     0
  9
$SPLINETYPE
 70
     6
  9
$SPLINESEGS
 70
     8
  9
$HANDSEED
  5
C9C
  9
$SURFTAB1
 70
     6
  9
$SURFTAB2
 70
     6
  9
$SURFTYPE
 70
     6
  9
$SURFU
 70
     6
  9
$SURFV
 70
     6
  9
$UCSBASE
  2

  9
$UCSNAME
  2

  9
$UCSORG
 10
0.0
 20
0.0
 30
0.0
  9
$UCSXDIR
 10
1.0
 20
0.0
 30
0.0
  9
$UCSYDIR
 10
0.0
 20
1.0
 30
0.0
  9
$UCSORTHOREF
  2

  9
$UCSORTHOVIEW
 70
     0
  9
$UCSORGTOP
 10
0.0
 20
0.0
 30
0.0
  9
$UCSORGBOTTOM
 10
0.0
 20
0.0
 30
0.0
  9
$UCSORGLEFT
 10
0.0
 20
0.0
 30
0.0
  9
$UCSORGRIGHT
 10
0.0
 20
0.0
 30
0.0
  9
$UCSORGFRONT
 10
0.0
 20
0.0
 30
0.0
  9
$UCSORGBACK
 10
0.0
 20
0.0
 30
0.0
  9
$PUCSBASE
  2

  9
$PUCSNAME
  2

  9
$PUCSORG
 10
0.0
 20
0.0
 30
0.0
  9
$PUCSXDIR
 10
1.0
 20
0.0
 30
0.0
  9
$PUCSYDIR
 10
0.0
 20
1.0
 30
0.0
  9
$PUCSORTHOREF
  2

  9
$PUCSORTHOVIEW
 70
     0
  9
$PUCSORGTOP
 10
0.0
 20
0.0
 30
0.0
  9
$PUCSORGBOTTOM
 10
0.0
 20
0.0
 30
0.0
  9
$PUCSORGLEFT
 10
0.0
 20
0.0
 30
0.0
  9
$PUCSORGRIGHT
 10
0.0
 20
0.0
 30
0.0
  9
$PUCSORGFRONT
 10
0.0
 20
0.0
 30
0.0
  9
$PUCSORGBACK
 10
0.0
 20
0.0
 30
0.0
  9
$USERI1
 70
     0
  9
$USERI2
 70
     0
  9
$USERI3
 70
     0
  9
$USERI4
 70
     0
  9
$USERI5
 70
     0
  9
$USERR1
 40
0.0
  9
$USERR2
 40
0.0
  9
$USERR3
 40
0.0
  9
$USERR4
 40
0.0
  9
$USERR5
 40
0.0
  9
$WORLDVIEW
 70
     1
  9
$SHADEDGE
 70
     3
  9
$SHADEDIF
 70
    70
  9
$TILEMODE
 70
     1
  9
$MAXACTVP
 70
    64
  9
$PINSBASE
 10
0.0
 20
0.0
 30
0.0
  9
$PLIMCHECK
 70
     0
  9
$PEXTMIN
 10
1.000000000000000E+20
 20
1.000000000000000E+20
 30
1.000000000000000E+20
  9
$PEXTMAX
 10
-1.000000000000000E+20
 20
-1.000000000000000E+20
 30
-1.000000000000000E+20
  9
$PLIMMIN
 10
0.0
 20
0.0
  9
$PLIMMAX
 10
12.0
 20
9.0
  9
$UNITMODE
 70
     0
  9
$VISRETAIN
 70
     1
  9
$PLINEGEN
 70
     0
  9
$PSLTSCALE
 70
     1
  9
$TREEDEPTH
 70
  3020
  9
$CMLSTYLE
  2
Standard
  9
$CMLJUST
 70
     0
  9
$CMLSCALE
 40
1.0
  9
$PROXYGRAPHICS
 70
     1
  9
$MEASUREMENT
 70
     1
  9
$CELWEIGHT
370
    -1
  9
$ENDCAPS
280
     0
  9
$JOINSTYLE
280
     0
  9
$LWDISPLAY
290
     0
  9
$INSUNITS
 70
     4
  9
$HYPERLINKBASE
  1

  9
$STYLESHEET
  1

  9
$XEDIT
290
     1
  9
$CEPSNTYPE
380
     0
  9
$PSTYLEMODE
290
     1
  9
$FINGERPRINTGUID
  2
{D4459906-B975-4F6B-933E-79DF8BC58286}
  9
$VERSIONGUID
  2
{FAEB1C32-E019-11D5-929B-00C0DF256EC4}
  9
$EXTNAMES
290
     1
  9
$PSVPSCALE
 40
0.0
  9
$OLESTARTUP
290
     0
  9
$SORTENTS
280
   127
  9
$INDEXCTL
280
     0
  9
$HIDETEXT
280
     1
  9
$XCLIPFRAME
290
     0
  9
$HALOGAP
280
     0
  9
$OBSCOLOR
 70
   257
  9
$OBSLTYPE
280
     0
  9
$INTERSECTIONDISPLAY
280
     0
  9
$INTERSECTIONCOLOR
 70
   257
  9
$DIMASSOC
280
     2
  9
$PROJECTNAME
  1

  9
$CAMERADISPLAY
290
     0
  9
$LENSLENGTH
 40
50.0
  9
$CAMERAHEIGHT
 40
0.0
  9
$STEPSPERSEC
 40
2.0
  9
$STEPSIZE
 40
6.0
  9
$3DDWFPREC
 40
2.0
  9
$PSOLWIDTH
 40
0.25
  9
$PSOLHEIGHT
 40
4.0
  9
$LOFTANG1
 40
1.570796326794897
  9
$LOFTANG2
 40
1.570796326794897
  9
$LOFTMAG1
 40
0.0
  9
$LOFTMAG2
 40
0.0
  9
$LOFTPARAM
 70
     7
  9
$LOFTNORMALS
280
     1
  9
$LATITUDE
 40
37.795
  9
$LONGITUDE
 40
-122.394
  9
$NORTHDIRECTION
 40
0.0
  9
$TIMEZONE
 70
 -8000
  9
$LIGHTGLYPHDISPLAY
280
     1
  9
$TILEMODELIGHTSYNCH
280
     1
  9
$CMATERIAL
347
BFE
  9
$SOLIDHIST
280
     1
  9
$SHOWHIST
280
     1
  9
$DWFFRAME
280
     2
  9
$DGNFRAME
280
     2
  9
$REALWORLDSCALE
290
     1
  9
$INTERFERECOLOR
 62
   256
  9
$CSHADOW
280
     0
  9
$SHADOWPLANELOCATION
 40
0.0
  0
ENDSEC
  0
SECTION
  2
CLASSES
  0
CLASS
  1
ACDBDICTIONARYWDFLT
  2
AcDbDictionaryWithDefault
  3
ObjectDBX Classes
 90
        0
 91
        4
280
     0
281
     0
  0
CLASS
  1
VISUALSTYLE
  2
AcDbVisualStyle
  3
ObjectDBX Classes
 90
     4095
 91
        4
280
     0
281
     0
  0
CLASS
  1
MATERIAL
  2
AcDbMaterial
  3
ObjectDBX Classes
 90
     1153
 91
        4
280
     0
281
     0
  0
CLASS
  1
SCALE
  2
AcDbScale
  3
ObjectDBX Classes
 90
     1153
 91
        4
280
     0
281
     0
  0
CLASS
  1
SUN
  2
AcDbSun
  3
SCENEOE
 90
     1153
 91
        4
280
     0
281
     0
  0
CLASS
  1
DICTIONARYVAR
  2
AcDbDictionaryVar
  3
ObjectDBX Classes
 90
        0
 91
        4
280
     0
281
     0
  0
ENDSEC
  0
SECTION
  2
TABLES
  0
TABLE
  2
VPORT
  5
BC3
330
0
100
AcDbSymbolTable
 70
     1
  0
VPORT
  5
BE3
330
BC3
100
AcDbSymbolTableRecord
100
AcDbViewportTableRecord
  2
*Active
 70
     0
 10
0.0
 20
0.0
 11
1.0
 21
1.0
 12
10.42990654205607
 22
4.5
 13
0.0
 23
0.0
 14
0.5
 24
0.5
 15
0.5
 25
0.5
 16
0.0
 26
0.0
 36
1.0
 17
0.0
 27
0.0
 37
0.0
 40
9.0
 41
1.972972972850329
 42
50.0
 43
0.0
 44
0.0
 50
0.0
 51
0.0
 71
     0
 72
   100
 73
     1
 74
     3
 75
     0
 76
     0
 77
     0
 78
     0
281
     0
 65
     1
110
0.0
120
0.0
130
0.0
111
1.0
121
0.0
131
0.0
112
0.0
122
1.0
132
0.0
 79
     0
146
0.0
 60
     3
 61
     5
292
     1
282
     1
141
0.0
142
0.0
 63
   250
361
C23
  0
ENDTAB
  0
TABLE
  2
LTYPE
  5
BC0
330
0
100
AcDbSymbolTable
 70
    19
  0
LTYPE
  5
BCE
330
BC0
100
AcDbSymbolTableRecord
100
AcDbLinetypeTableRecord
  2
ByBlock
 70
     0
  3

 72
    65
 73
     0
 40
0.0
  0
LTYPE
  5
BCF
330
BC0
100
AcDbSymbolTableRecord
100
AcDbLinetypeTableRecord
  2
ByLayer
 70
     0
  3

 72
    65
 73
     0
 40
0.0
  0
LTYPE
  5
BD0
330
BC0
100
AcDbSymbolTableRecord
100
AcDbLinetypeTableRecord
  2
Continuous
 70
     0
  3
Solid line
 72
    65
 73
     0
 40
0.0
  0
LTYPE
  5
C52
330
BC0
100
AcDbSymbolTableRecord
100
AcDbLinetypeTableRecord
  2
BORDER
 70
     0
  3

 72
    65
 73
     6
 40
42.00000000000001
 49
12.0
 74
     0
 49
-6.0
 74
     0
 49
12.0
 74
     0
 49
-5.95
 74
     0
 49
0.1
 74
     0
 49
-5.95
 74
     0
  0
LTYPE
  5
C53
330
BC0
100
AcDbSymbolTableRecord
100
AcDbLinetypeTableRecord
  2
BORDER2
 70
     0
  3

 72
    65
 73
     6
 40
21.0
 49
6.0
 74
     0
 49
-3.0
 74
     0
 49
6.0
 74
     0
 49
-2.95
 74
     0
 49
0.1
 74
     0
 49
-2.95
 74
     0
  0
LTYPE
  5
C54
330
BC0
100
AcDbSymbolTableRecord
100
AcDbLinetypeTableRecord
  2
BORDERX2
 70
     0
  3

 72
    65
 73
     6
 40
84.0
 49
24.0
 74
     0
 49
-12.0
 74
     0
 49
24.0
 74
     0
 49
-11.95
 74
     0
 49
0.1
 74
     0
 49
-11.95
 74
     0
  0
LTYPE
  5
C55
330
BC0
100
AcDbSymbolTableRecord
100
AcDbLinetypeTableRecord
  2
CENTER
 70
     0
  3

 72
    65
 73
     4
 40
50.0
 49
32.0
 74
     0
 49
-6.0
 74
     0
 49
6.0
 74
     0
 49
-6.0
 74
     0
  0
LTYPE
  5
C56
330
BC0
100
AcDbSymbolTableRecord
100
AcDbLinetypeTableRecord
  2
CENTER2
 70
     0
  3

 72
    65
 73
     4
 40
25.0
 49
16.0
 74
     0
 49
-3.0
 74
     0
 49
3.0
 74
     0
 49
-3.0
 74
     0
  0
LTYPE
  5
C57
330
BC0
100
AcDbSymbolTableRecord
100
AcDbLinetypeTableRecord
  2
CENTERX2
 70
     0
  3

 72
    65
 73
     4
 40
100.0
 49
64.0
 74
     0
 49
-12.0
 74
     0
 49
12.0
 74
     0
 49
-12.0
 74
     0
  0
LTYPE
  5
C58
330
BC0
100
AcDbSymbolTableRecord
100
AcDbLinetypeTableRecord
  2
DASHDOT
 70
     0
  3

 72
    65
 73
     4
 40
24.0
 49
12.0
 74
     0
 49
-5.95
 74
     0
 49
0.1
 74
     0
 49
-5.95
 74
     0
  0
LTYPE
  5
C59
330
BC0
100
AcDbSymbolTableRecord
100
AcDbLinetypeTableRecord
  2
DASHDOT2
 70
     0
  3

 72
    65
 73
     4
 40
12.0
 49
6.0
 74
     0
 49
-2.95
 74
     0
 49
0.1
 74
     0
 49
-2.95
 74
     0
  0
LTYPE
  5
C5A
330
BC0
100
AcDbSymbolTableRecord
100
AcDbLinetypeTableRecord
  2
DASHDOTX2
 70
     0
  3

 72
    65
 73
     4
 40
48.0
 49
24.0
 74
     0
 49
-11.95
 74
     0
 49
0.1
 74
     0
 49
-11.95
 74
     0
  0
LTYPE
  5
C5B
330
BC0
100
AcDbSymbolTableRecord
100
AcDbLinetypeTableRecord
  2
DASHED
 70
     0
  3

 72
    65
 73
     2
 40
18.0
 49
12.0
 74
     0
 49
-6.0
 74
     0
  0
LTYPE
  5
C5C
330
BC0
100
AcDbSymbolTableRecord
100
AcDbLinetypeTableRecord
  2
DASHED2
 70
     0
  3

 72
    65
 73
     2
 40
9.0
 49
6.0
 74
     0
 49
-3.0
 74
     0
  0
LTYPE
  5
C5D
330
BC0
100
AcDbSymbolTableRecord
100
AcDbLinetypeTableRecord
  2
DASHEDX2
 70
     0
  3

 72
    65
 73
     2
 40
36.0
 49
24.0
 74
     0
 49
-12.0
 74
     0
  0
LTYPE
  5
C5E
330
BC0
100
AcDbSymbolTableRecord
100
AcDbLinetypeTableRecord
  2
DIVIDE
 70
     0
  3

 72
    65
 73
     6
 40
29.99999999999999
 49
12.0
 74
     0
 49
-5.9
 74
     0
 49
0.15
 74
     0
 49
-5.9
 74
     0
 49
0.15
 74
     0
 49
-5.9
 74
     0
  0
LTYPE
  5
C5F
330
BC0
100
AcDbSymbolTableRecord
100
AcDbLinetypeTableRecord
  2
DIVIDE2
 70
     0
  3

 72
    65
 73
     6
 40
15.0
 49
6.0
 74
     0
 49
-2.9
 74
     0
 49
0.15
 74
     0
 49
-2.9
 74
     0
 49
0.15
 74
     0
 49
-2.9
 74
     0
  0
LTYPE
  5
C60
330
BC0
100
AcDbSymbolTableRecord
100
AcDbLinetypeTableRecord
  2
DIVIDEX2
 70
     0
  3

 72
    65
 73
     6
 40
59.99999999999999
 49
24.0
 74
     0
 49
-11.9
 74
     0
 49
0.15
 74
     0
 49
-11.9
 74
     0
 49
0.15
 74
     0
 49
-11.9
 74
     0
  0
LTYPE
  5
C61
330
BC0
100
AcDbSymbolTableRecord
100
AcDbLinetypeTableRecord
  2
DOT
 70
     0
  3

 72
    65
 73
     2
 40
6.3
 49
0.1
 74
     0
 49
-6.2
 74
     0
  0
LTYPE
  5
C62
330
BC0
100
AcDbSymbolTableRecord
100
AcDbLinetypeTableRecord
  2
DOT2
 70
     0
  3

 72
    65
 73
     2
 40
3.2
 49
0.1
 74
     0
 49
-3.1
 74
     0
  0
LTYPE
  5
C63
330
BC0
100
AcDbSymbolTableRecord
100
AcDbLinetypeTableRecord
  2
DOTX2
 70
     0
  3

 72
    65
 73
     2
 40
12.5
 49
0.1
 74
     0
 49
-12.4
 74
     0
  0
ENDTAB
  0
TABLE
  2
LAYER
  5
BBD
330
0
100
AcDbSymbolTable
 70
     3
  0
LAYER
  5
BCB
330
BBD
100
AcDbSymbolTableRecord
100
AcDbLayerTableRecord
  2
0
 70
     1
 62
    18
420
        0
  6
Continuous
370
    25
390
BCA
347
C00
  0
LAYER
  5
C64
330
BBD
100
AcDbSymbolTableRecord
100
AcDbLayerTableRecord
  2
Easyheater Boden
 70
     0
 62
     5
420
      255
  6
Continuous
370
    35
390
BCA
347
C00
  0
LAYER
  5
C65
330
BBD
100
AcDbSymbolTableRecord
100
AcDbLayerTableRecord
  2
Easyheater Deckel
 70
     1
 62
     5
420
      255
  6
Continuous
370
    35
390
BCA
347
C00
  0
ENDTAB
  0
TABLE
  2
STYLE
  5
BBE
330
0
100
AcDbSymbolTable
 70
     1
  0
STYLE
  5
BCC
330
BBE
100
AcDbSymbolTableRecord
100
AcDbTextStyleTableRecord
  2
Standard
 70
     0
 40
0.0
 41
1.0
 50
0.0
 71
     0
 42
0.2
  3
txt
  4

  0
ENDTAB
  0
TABLE
  2
VIEW
  5
BC1
330
0
100
AcDbSymbolTable
 70
     0
  0
ENDTAB
  0
TABLE
  2
UCS
  5
BC2
330
0
100
AcDbSymbolTable
 70
     0
  0
ENDTAB
  0
TABLE
  2
APPID
  5
BC4
330
0
100
AcDbSymbolTable
 70
     2
  0
APPID
  5
BCD
330
BC4
100
AcDbSymbolTableRecord
100
AcDbRegAppTableRecord
  2
ACAD
 70
     0
  0
APPID
  5
C24
330
BC4
100
AcDbSymbolTableRecord
100
AcDbRegAppTableRecord
  2
QCAD
 70
     0
  0
ENDTAB
  0
TABLE
  2
DIMSTYLE
  5
BC5
330
0
100
AcDbSymbolTable
 70
     2
100
AcDbDimStyleTable
  0
DIMSTYLE
105
BE1
330
BC5
100
AcDbSymbolTableRecord
100
AcDbDimStyleTableRecord
  2
Standard
 70
     0
178
     0
340
BCC
  0
DIMSTYLE
105
C51
330
BC5
100
AcDbSymbolTableRecord
100
AcDbDimStyleTableRecord
  2
QCADDimStyle
 70
     0
 41
2.5
 42
0.625
 44
1.25
 73
     0
 77
     1
140
2.5
147
0.625
178
     0
340
BCC
  0
ENDTAB
  0
TABLE
  2
BLOCK_RECORD
  5
BBC
330
0
100
AcDbSymbolTable
 70
     1
  0
BLOCK_RECORD
  5
BD9
330
BBC
100
AcDbSymbolTableRecord
100
AcDbBlockTableRecord
  2
*Model_Space
340
BDC
 70
     0
280
     1
281
     0
  0
BLOCK_RECORD
  5
BD5
330
BBC
100
AcDbSymbolTableRecord
100
AcDbBlockTableRecord
  2
*Paper_Space
340
BD8
 70
     0
280
     1
281
     0
  0
BLOCK_RECORD
  5
BDD
330
BBC
100
AcDbSymbolTableRecord
100
AcDbBlockTableRecord
  2
*Paper_Space0
340
BE0
 70
     0
280
     1
281
     0
  0
ENDTAB
  0
ENDSEC
  0
SECTION
  2
BLOCKS
  0
BLOCK
  5
BDA
330
BD9
100
AcDbEntity
  8
0
100
AcDbBlockBegin
  2
*Model_Space
 70
     0
 10
0.0
 20
0.0
 30
0.0
  3
*Model_Space
  1
*Model_Space
  0
ENDBLK
  5
BDB
330
BD9
100
AcDbEntity
  8
0
100
AcDbBlockEnd
  0
BLOCK
  5
BD6
330
BD5
100
AcDbEntity
 67
     1
  8
0
100
AcDbBlockBegin
  2
*Paper_Space
 70
     0
 10
0.0
 20
0.0
 30
0.0
  3
*Paper_Space
  1
*Paper_Space
  0
ENDBLK
  5
BD7
330
BD5
100
AcDbEntity
 67
     1
  8
0
100
AcDbBlockEnd
  0
BLOCK
  5
BDE
330
BDD
100
AcDbEntity
  8
0
100
AcDbBlockBegin
  2
*Paper_Space0
 70
     0
 10
0.0
 20
0.0
 30
0.0
  3
*Paper_Space0
  1
*Paper_Space0
  0
ENDBLK
  5
BDF
330
BDD
100
AcDbEntity
  8
0
100
AcDbBlockEnd
  0
ENDSEC
  0
SECTION
  2
ENTITIES
  0
LINE
  5
1C
330
BD9
100
AcDbEntity
  8
Easyheater Boden
100
AcDbLine
 10
-49.496738006002
 20
0.0
 30
0.0
 11
-12.996738006002
 21
0.0
 31
0.0
  0
LINE
  5
1E
330
BD9
100
AcDbEntity
  8
Easyheater Boden
100
AcDbLine
 10
-12.996738006002
 20
206.9663840522593
 30
0.0
 11
-49.496738006002
 21
206.9663840522593
 31
0.0
  0
LINE
  5
20
330
BD9
100
AcDbEntity
  8
Easyheater Boden
100
AcDbLine
 10
113.0092608568209
 20
0.0
 30
0.0
 11
149.5092608568209
 21
0.0
 31
0.0
  0
LINE
  5
22
330
BD9
100
AcDbEntity
  8
Easyheater Boden
100
AcDbLine
 10
149.5092608568209
 20
206.9663840522593
 30
0.0
 11
113.0092608568209
 21
206.9663840522593
 31
0.0
  0
LINE
  5
25
330
BD9
100
AcDbEntity
  8
Easyheater Boden
100
AcDbLine
 10
102.5020040526597
 20
216.962198954974
 30
0.0
 11
102.5020040526597
 21
253.462198954974
 31
0.0
  0
LINE
  5
27
330
BD9
100
AcDbEntity
  8
Easyheater Boden
100
AcDbLine
 10
-2.496395645867665
 20
253.462198954974
 30
0.0
 11
-2.496395645867665
 21
216.962198954974
 31
0.0
  0
LINE
  5
29
330
BD9
100
AcDbEntity
  8
Easyheater Boden
100
AcDbLine
 10
102.5020040526597
 20
-46.49153965415672
 30
0.0
 11
102.5020040526597
 21
-9.991539654156725
 31
0.0
  0
LINE
  5
2B
330
BD9
100
AcDbEntity
  8
Easyheater Boden
100
AcDbLine
 10
-2.496395645867665
 20
-9.991539654156725
 30
0.0
 11
-2.496395645867665
 21
-46.49153965415672
 31
0.0
  0
LINE
  5
2C
330
BD9
100
AcDbEntity
  8
Easyheater Boden
100
AcDbLine
 10
-2.996395645867665
 20
204.9663840522593
 30
0.0
 11
-1.996395645867665
 21
204.9663840522593
 31
0.0
  0
LINE
  5
2D
330
BD9
100
AcDbEntity
  8
Easyheater Boden
100
AcDbLine
 10
-1.996395645867665
 20
204.9663840522593
 30
0.0
 11
-1.996395645867665
 21
205.9663840522593
 31
0.0
  0
LINE
  5
2F
330
BD9
100
AcDbEntity
  8
Easyheater Boden
100
AcDbLine
 10
-2.996395645867665
 20
205.9663840522593
 30
0.0
 11
-2.996395645867665
 21
204.9663840522593
 31
0.0
  0
LINE
  5
30
330
BD9
100
AcDbEntity
  8
Easyheater Boden
100
AcDbLine
 10
102.0020040526597
 20
204.9663840522593
 30
0.0
 11
103.0020040526597
 21
204.9663840522593
 31
0.0
  0
LINE
  5
31
330
BD9
100
AcDbEntity
  8
Easyheater Boden
100
AcDbLine
 10
103.0020040526597
 20
204.9663840522593
 30
0.0
 11
103.0020040526597
 21
205.9663840522593
 31
0.0
  0
LINE
  5
33
330
BD9
100
AcDbEntity
  8
Easyheater Boden
100
AcDbLine
 10
102.0020040526597
 20
205.9663840522593
 30
0.0
 11
102.0020040526597
 21
204.9663840522593
 31
0.0
  0
LINE
  5
35
330
BD9
100
AcDbEntity
  8
Easyheater Boden
100
AcDbLine
 10
103.0020040526597
 20
1.0
 30
0.0
 11
103.0020040526597
 21
2.0
 31
0.0
  0
LINE
  5
36
330
BD9
100
AcDbEntity
  8
Easyheater Boden
100
AcDbLine
 10
103.0020040526597
 20
2.0
 30
0.0
 11
102.0020040526597
 21
2.0
 31
0.0
  0
LINE
  5
37
330
BD9
100
AcDbEntity
  8
Easyheater Boden
100
AcDbLine
 10
102.0020040526597
 20
2.0
 30
0.0
 11
102.0020040526597
 21
1.0
 31
0.0
  0
LINE
  5
39
330
BD9
100
AcDbEntity
  8
Easyheater Boden
100
AcDbLine
 10
-1.996395645867665
 20
1.0
 30
0.0
 11
-1.996395645867665
 21
2.0
 31
0.0
  0
LINE
  5
3A
330
BD9
100
AcDbEntity
  8
Easyheater Boden
100
AcDbLine
 10
-1.996395645867665
 20
2.0
 30
0.0
 11
-2.996395645867665
 21
2.0
 31
0.0
  0
LINE
  5
3B
330
BD9
100
AcDbEntity
  8
Easyheater Boden
100
AcDbLine
 10
-2.996395645867665
 20
2.0
 30
0.0
 11
-2.996395645867665
 21
1.0
 31
0.0
  0
LINE
  5
3C
330
BD9
100
AcDbEntity
  8
Easyheater Boden
100
AcDbLine
 10
-1.496395645867665
 20
0.0
 30
0.0
 11
-0.4963956458676648
 21
0.0
 31
0.0
  0
LINE
  5
3D
330
BD9
100
AcDbEntity
  8
Easyheater Boden
100
AcDbLine
 10
-0.4963956458676648
 20
0.0
 30
0.0
 11
-0.4963956458676648
 21
1.0
 31
0.0
  0
LINE
  5
3E
330
BD9
100
AcDbEntity
  8
Easyheater Boden
100
AcDbLine
 10
-0.4963956458676648
 20
1.0
 30
0.0
 11
-1.996395645867665
 21
1.0
 31
0.0
  0
LINE
  5
40
330
BD9
100
AcDbEntity
  8
Easyheater Boden
100
AcDbLine
 10
100.5020040526597
 20
0.0
 30
0.0
 11
101.5020040526597
 21
0.0
 31
0.0
  0
LINE
  5
42
330
BD9
100
AcDbEntity
  8
Easyheater Boden
100
AcDbLine
 10
102.0020040526597
 20
1.0
 30
0.0
 11
100.5020040526597
 21
1.0
 31
0.0
  0
LINE
  5
43
330
BD9
100
AcDbEntity
  8
Easyheater Boden
100
AcDbLine
 10
100.5020040526597
 20
1.0
 30
0.0
 11
100.5020040526597
 21
0.0
 31
0.0
  0
LINE
  5
44
330
BD9
100
AcDbEntity
  8
Easyheater Boden
100
AcDbLine
 10
100.5020040526597
 20
205.9663840522593
 30
0.0
 11
102.0020040526597
 21
205.9663840522593
 31
0.0
  0
LINE
  5
46
330
BD9
100
AcDbEntity
  8
Easyheater Boden
100
AcDbLine
 10
101.5020040526597
 20
206.9663840522593
 30
0.0
 11
100.5020040526597
 21
206.9663840522593
 31
0.0
  0
LINE
  5
47
330
BD9
100
AcDbEntity
  8
Easyheater Boden
100
AcDbLine
 10
100.5020040526597
 20
206.9663840522593
 30
0.0
 11
100.5020040526597
 21
205.9663840522593
 31
0.0
  0
LINE
  5
48
330
BD9
100
AcDbEntity
  8
Easyheater Boden
100
AcDbLine
 10
-1.996395645867665
 20
205.9663840522593
 30
0.0
 11
-0.4963956458676648
 21
205.9663840522593
 31
0.0
  0
LINE
  5
49
330
BD9
100
AcDbEntity
  8
Easyheater Boden
100
AcDbLine
 10
-0.4963956458676648
 20
205.9663840522593
 30
0.0
 11
-0.4963956458676648
 21
206.9663840522593
 31
0.0
  0
LINE
  5
4A
330
BD9
100
AcDbEntity
  8
Easyheater Boden
100
AcDbLine
 10
-0.4963956458676648
 20
206.9663840522593
 30
0.0
 11
-1.496395645867665
 21
206.9663840522593
 31
0.0
  0
LINE
  5
65
330
BD9
100
AcDbEntity
  8
Easyheater Boden
100
AcDbLine
 10
-34.22112527912
 20
51.46964864162958
 30
0.0
 11
-34.22112527912
 21
49.83274998670589
 31
0.0
  0
LINE
  5
67
330
BD9
100
AcDbEntity
  8
Easyheater Boden
100
AcDbLine
 10
-19.22112527912
 20
64.11964864162961
 30
0.0
 11
-19.22112527912
 21
49.83274998670589
 31
0.0
  0
LINE
  5
69
330
BD9
100
AcDbEntity
  8
Easyheater Boden
100
AcDbLine
 10
-34.22112527912
 20
64.11964864162961
 30
0.0
 11
-34.22112527912
 21
61.46964864162958
 31
0.0
  0
LINE
  5
6C
330
BD9
100
AcDbEntity
  8
Easyheater Boden
100
AcDbLine
 10
-39.22112527912
 20
57.46964864162958
 30
0.0
 11
-39.22112527912
 21
55.46964864162958
 31
0.0
  0
LINE
  5
6D
330
BD9
100
AcDbEntity
  8
Easyheater Boden
100
AcDbLine
 10
-37.22112527912
 20
53.46964864162958
 30
0.0
 11
-36.22112527912
 21
53.46964864162958
 31
0.0
  0
LINE
  5
6E
330
BD9
100
AcDbEntity
  8
Easyheater Boden
100
AcDbLine
 10
-36.22112527912
 20
59.46964864162958
 30
0.0
 11
-37.22112527912
 21
59.46964864162958
 31
0.0
  0
ARC
  5
6F
330
BD9
100
AcDbEntity
  8
Easyheater Boden
100
AcDbCircle
 10
-36.22112527912
 20
61.46964864162958
 30
0.0
 40
2.0
100
AcDbArc
 50
270.0
 51
0.0
  0
ARC
  5
70
330
BD9
100
AcDbEntity
  8
Easyheater Boden
100
AcDbCircle
 10
-36.22112527912
 20
51.46964864162958
 30
0.0
 40
2.0
100
AcDbArc
 50
0.0
 51
90.0
  0
ARC
  5
71
330
BD9
100
AcDbEntity
  8
Easyheater Boden
100
AcDbCircle
 10
-37.22112527912
 20
55.46964864162958
 30
0.0
 40
2.0
100
AcDbArc
 50
180.0
 51
270.0
  0
ARC
  5
72
330
BD9
100
AcDbEntity
  8
Easyheater Boden
100
AcDbCircle
 10
-20.72112527912
 20
64.11964864162961
 30
0.0
 40
1.5
100
AcDbArc
 50
0.0
 51
90.0
  0
ARC
  5
73
330
BD9
100
AcDbEntity
  8
Easyheater Boden
100
AcDbCircle
 10
-37.22112527912
 20
57.46964864162958
 30
0.0
 40
2.0
100
AcDbArc
 50
90.0
 51
180.0
  0
ARC
  5
74
330
BD9
100
AcDbEntity
  8
Easyheater Boden
100
AcDbCircle
 10
-20.72112527912
 20
49.83274998670589
 30
0.0
 40
1.5
100
AcDbArc
 50
270.0
 51
0.0
  0
ARC
  5
75
330
BD9
100
AcDbEntity
  8
Easyheater Boden
100
AcDbCircle
 10
-32.72112527911999
 20
49.83274998670589
 30
0.0
 40
1.5
100
AcDbArc
 50
180.0
 51
270.0
  0
ARC
  5
76
330
BD9
100
AcDbEntity
  8
Easyheater Boden
100
AcDbCircle
 10
-32.72112527911999
 20
64.11964864162961
 30
0.0
 40
1.5
100
AcDbArc
 50
90.0
 51
180.0
  0
LINE
  5
77
330
BD9
100
AcDbEntity
  8
Easyheater Boden
100
AcDbLine
 10
-20.72112527912
 20
65.61964864162961
 30
0.0
 11
-32.72112527911999
 21
65.61964864162961
 31
0.0
  0
LINE
  5
78
330
BD9
100
AcDbEntity
  8
Easyheater Boden
100
AcDbLine
 10
-32.72112527911999
 20
48.33274998670589
 30
0.0
 11
-20.72112527912
 21
48.33274998670589
 31
0.0
  0
ARC
  5
C9
330
BD9
100
AcDbEntity
  8
Easyheater Boden
100
AcDbCircle
 10
-3.996395645867665
 20
1.0
 30
0.0
 40
1.0
100
AcDbArc
 50
270.0
 51
0.0
  0
ARC
  5
CA
330
BD9
100
AcDbEntity
  8
Easyheater Boden
100
AcDbCircle
 10
-1.496395645867665
 20
-1.0
 30
0.0
 40
1.0
100
AcDbArc
 50
90.0
 51
180.0
  0
ARC
  5
CB
330
BD9
100
AcDbEntity
  8
Easyheater Boden
100
AcDbCircle
 10
101.5020040526597
 20
-1.0
 30
0.0
 40
1.0
100
AcDbArc
 50
0.0
 51
90.0
  0
ARC
  5
CC
330
BD9
100
AcDbEntity
  8
Easyheater Boden
100
AcDbCircle
 10
104.0020040526597
 20
1.0
 30
0.0
 40
1.0
100
AcDbArc
 50
180.0
 51
270.0
  0
ARC
  5
CD
330
BD9
100
AcDbEntity
  8
Easyheater Boden
100
AcDbCircle
 10
101.5020040526597
 20
207.9663840522593
 30
0.0
 40
1.0
100
AcDbArc
 50
270.0
 51
0.0
  0
ARC
  5
CF
330
BD9
100
AcDbEntity
  8
Easyheater Boden
100
AcDbCircle
 10
104.0020040526597
 20
205.9663840522593
 30
0.0
 40
1.0
100
AcDbArc
 50
90.0
 51
180.0
  0
ARC
  5
D0
330
BD9
100
AcDbEntity
  8
Easyheater Boden
100
AcDbCircle
 10
-3.996395645867665
 20
205.9663840522593
 30
0.0
 40
1.0
100
AcDbArc
 50
0.0
 51
90.0
  0
ARC
  5
D2
330
BD9
100
AcDbEntity
  8
Easyheater Boden
100
AcDbCircle
 10
-1.496395645867665
 20
207.9663840522593
 30
0.0
 40
1.0
100
AcDbArc
 50
180.0
 51
270.0
  0
CIRCLE
  5
3E3
330
BD9
100
AcDbEntity
  8
Easyheater Boden
100
AcDbCircle
 10
25.4
 20
-20.02235998784964
 30
0.0
 40
2.2
  0
CIRCLE
  5
3E4
330
BD9
100
AcDbEntity
  8
Easyheater Boden
100
AcDbCircle
 10
50.39999999999999
 20
-20.02235998784964
 30
0.0
 40
2.2
  0
CIRCLE
  5
3E5
330
BD9
100
AcDbEntity
  8
Easyheater Boden
100
AcDbCircle
 10
75.4
 20
-20.02235998784964
 30
0.0
 40
2.2
  0
LINE
  5
3E6
330
BD9
100
AcDbEntity
  8
Easyheater Boden
100
AcDbLine
 10
-2.496395645867665
 20
216.962198954974
 30
0.0
 11
-2.496395645867665
 21
207.9663840522593
 31
0.0
  0
LINE
  5
3E7
330
BD9
100
AcDbEntity
  8
Easyheater Boden
100
AcDbLine
 10
102.5020040526597
 20
216.962198954974
 30
0.0
 11
102.5020040526597
 21
207.9663840522593
 31
0.0
  0
LINE
  5
3E8
330
BD9
100
AcDbEntity
  8
Easyheater Boden
100
AcDbLine
 10
-2.496395645867665
 20
-0.9999999999999999
 30
0.0
 11
-2.496395645867665
 21
-9.991539654156725
 31
0.0
  0
LINE
  5
3E9
330
BD9
100
AcDbEntity
  8
Easyheater Boden
100
AcDbLine
 10
102.5020040526597
 20
-9.991539654156725
 30
0.0
 11
102.5020040526597
 21
-1.0
 31
0.0
  0
LINE
  5
3EC
330
BD9
100
AcDbEntity
  8
Easyheater Boden
100
AcDbLine
 10
-12.996738006002
 20
206.9663840522593
 30
0.0
 11
-3.996395645867665
 21
206.9663840522593
 31
0.0
  0
LINE
  5
3ED
330
BD9
100
AcDbEntity
  8
Easyheater Boden
100
AcDbLine
 10
113.0092608568209
 20
206.9663840522593
 30
0.0
 11
104.0020040526597
 21
206.9663840522593
 31
0.0
  0
LINE
  5
3EE
330
BD9
100
AcDbEntity
  8
Easyheater Boden
100
AcDbLine
 10
113.0092608568209
 20
0.0
 30
0.0
 11
104.0020040526597
 21
0.0
 31
0.0
  0
LINE
  5
3EF
330
BD9
100
AcDbEntity
  8
Easyheater Boden
100
AcDbLine
 10
-3.996395645867665
 20
0.0
 30
0.0
 11
-12.996738006002
 21
0.0
 31
0.0
  0
LINE
  5
3F0
330
BD9
100
AcDbEntity
  8
Easyheater Boden
100
AcDbLine
 10
-49.496738006002
 20
0.0
 30
0.0
 11
-49.496738006002
 21
206.9663840522593
 31
0.0
  0
LINE
  5
3F1
330
BD9
100
AcDbEntity
  8
Easyheater Boden
100
AcDbLine
 10
149.5092608568209
 20
0.0
 30
0.0
 11
149.5092608568209
 21
206.9663840522593
 31
0.0
  0
LINE
  5
494
330
BD9
100
AcDbEntity
  8
Easyheater Boden
100
AcDbLine
 10
137.5091040009391
 20
145.390229032992
 30
0.0
 11
137.5091040009391
 21
145.390229032992
 31
0.0
  0
LINE
  5
495
330
BD9
100
AcDbEntity
  8
Easyheater Boden
100
AcDbLine
 10
138.5091040009391
 20
146.390229032992
 30
0.0
 11
138.5091040009391
 21
174.390229032992
 31
0.0
  0
LINE
  5
496
330
BD9
100
AcDbEntity
  8
Easyheater Boden
100
AcDbLine
 10
137.5091040009391
 20
175.390229032992
 30
0.0
 11
137.5091040009391
 21
175.390229032992
 31
0.0
  0
LINE
  5
497
330
BD9
100
AcDbEntity
  8
Easyheater Boden
100
AcDbLine
 10
136.5091040009391
 20
174.390229032992
 30
0.0
 11
136.5091040009391
 21
146.390229032992
 31
0.0
  0
ARC
  5
498
330
BD9
100
AcDbEntity
  8
Easyheater Boden
100
AcDbCircle
 10
137.5091040009391
 20
146.390229032992
 30
0.0
 40
1.0
100
AcDbArc
 50
180.0
 51
270.0
  0
ARC
  5
499
330
BD9
100
AcDbEntity
  8
Easyheater Boden
100
AcDbCircle
 10
137.5091040009391
 20
146.390229032992
 30
0.0
 40
1.0
100
AcDbArc
 50
270.0
 51
0.0
  0
ARC
  5
49A
330
BD9
100
AcDbEntity
  8
Easyheater Boden
100
AcDbCircle
 10
137.5091040009391
 20
174.390229032992
 30
0.0
 40
1.0
100
AcDbArc
 50
90.0
 51
180.0
  0
ARC
  5
49B
330
BD9
100
AcDbEntity
  8
Easyheater Boden
100
AcDbCircle
 10
137.5091040009391
 20
174.390229032992
 30
0.0
 40
1.0
100
AcDbArc
 50
0.0
 51
90.0
  0
LINE
  5
49C
330
BD9
100
AcDbEntity
  8
Easyheater Boden
100
AcDbLine
 10
133.5089471450572
 20
145.390229032992
 30
0.0
 11
133.5089471450572
 21
145.390229032992
 31
0.0
  0
LINE
  5
49D
330
BD9
100
AcDbEntity
  8
Easyheater Boden
100
AcDbLine
 10
134.5089471450572
 20
146.390229032992
 30
0.0
 11
134.5089471450572
 21
174.390229032992
 31
0.0
  0
LINE
  5
49E
330
BD9
100
AcDbEntity
  8
Easyheater Boden
100
AcDbLine
 10
133.5089471450572
 20
175.390229032992
 30
0.0
 11
133.5089471450572
 21
175.390229032992
 31
0.0
  0
LINE
  5
49F
330
BD9
100
AcDbEntity
  8
Easyheater Boden
100
AcDbLine
 10
132.5089471450572
 20
174.390229032992
 30
0.0
 11
132.5089471450572
 21
146.390229032992
 31
0.0
  0
ARC
  5
4A0
330
BD9
100
AcDbEntity
  8
Easyheater Boden
100
AcDbCircle
 10
133.5089471450572
 20
146.390229032992
 30
0.0
 40
1.0
100
AcDbArc
 50
180.0
 51
270.0
  0
ARC
  5
4A1
330
BD9
100
AcDbEntity
  8
Easyheater Boden
100
AcDbCircle
 10
133.5089471450572
 20
146.390229032992
 30
0.0
 40
1.0
100
AcDbArc
 50
270.0
 51
0.0
  0
ARC
  5
4A2
330
BD9
100
AcDbEntity
  8
Easyheater Boden
100
AcDbCircle
 10
133.5089471450572
 20
174.390229032992
 30
0.0
 40
1.0
100
AcDbArc
 50
90.0
 51
180.0
  0
ARC
  5
4A3
330
BD9
100
AcDbEntity
  8
Easyheater Boden
100
AcDbCircle
 10
133.5089471450572
 20
174.390229032992
 30
0.0
 40
1.0
100
AcDbArc
 50
0.0
 51
90.0
  0
LINE
  5
4A4
330
BD9
100
AcDbEntity
  8
Easyheater Boden
100
AcDbLine
 10
129.5087902891754
 20
145.390229032992
 30
0.0
 11
129.5087902891754
 21
145.390229032992
 31
0.0
  0
LINE
  5
4A5
330
BD9
100
AcDbEntity
  8
Easyheater Boden
100
AcDbLine
 10
130.5087902891754
 20
146.390229032992
 30
0.0
 11
130.5087902891754
 21
174.390229032992
 31
0.0
  0
LINE
  5
4A6
330
BD9
100
AcDbEntity
  8
Easyheater Boden
100
AcDbLine
 10
129.5087902891754
 20
175.390229032992
 30
0.0
 11
129.5087902891754
 21
175.390229032992
 31
0.0
  0
LINE
  5
4A7
330
BD9
100
AcDbEntity
  8
Easyheater Boden
100
AcDbLine
 10
128.5087902891754
 20
174.390229032992
 30
0.0
 11
128.5087902891754
 21
146.390229032992
 31
0.0
  0
ARC
  5
4A8
330
BD9
100
AcDbEntity
  8
Easyheater Boden
100
AcDbCircle
 10
129.5087902891754
 20
146.390229032992
 30
0.0
 40
1.0
100
AcDbArc
 50
180.0
 51
270.0
  0
ARC
  5
4A9
330
BD9
100
AcDbEntity
  8
Easyheater Boden
100
AcDbCircle
 10
129.5087902891754
 20
146.390229032992
 30
0.0
 40
1.0
100
AcDbArc
 50
270.0
 51
0.0
  0
ARC
  5
4AA
330
BD9
100
AcDbEntity
  8
Easyheater Boden
100
AcDbCircle
 10
129.5087902891754
 20
174.390229032992
 30
0.0
 40
1.0
100
AcDbArc
 50
90.0
 51
180.0
  0
ARC
  5
4AB
330
BD9
100
AcDbEntity
  8
Easyheater Boden
100
AcDbCircle
 10
129.5087902891754
 20
174.390229032992
 30
0.0
 40
1.0
100
AcDbArc
 50
0.0
 51
90.0
  0
LINE
  5
4AC
330
BD9
100
AcDbEntity
  8
Easyheater Boden
100
AcDbLine
 10
125.5086334332935
 20
145.390229032992
 30
0.0
 11
125.5086334332935
 21
145.390229032992
 31
0.0
  0
LINE
  5
4AD
330
BD9
100
AcDbEntity
  8
Easyheater Boden
100
AcDbLine
 10
126.5086334332935
 20
146.390229032992
 30
0.0
 11
126.5086334332935
 21
174.390229032992
 31
0.0
  0
LINE
  5
4AE
330
BD9
100
AcDbEntity
  8
Easyheater Boden
100
AcDbLine
 10
125.5086334332935
 20
175.390229032992
 30
0.0
 11
125.5086334332935
 21
175.390229032992
 31
0.0
  0
LINE
  5
4AF
330
BD9
100
AcDbEntity
  8
Easyheater Boden
100
AcDbLine
 10
124.5086334332935
 20
174.390229032992
 30
0.0
 11
124.5086334332935
 21
146.390229032992
 31
0.0
  0
ARC
  5
4B0
330
BD9
100
AcDbEntity
  8
Easyheater Boden
100
AcDbCircle
 10
125.5086334332935
 20
146.390229032992
 30
0.0
 40
1.0
100
AcDbArc
 50
180.0
 51
270.0
  0
ARC
  5
4B1
330
BD9
100
AcDbEntity
  8
Easyheater Boden
100
AcDbCircle
 10
125.5086334332935
 20
146.390229032992
 30
0.0
 40
1.0
100
AcDbArc
 50
270.0
 51
0.0
  0
ARC
  5
4B2
330
BD9
100
AcDbEntity
  8
Easyheater Boden
100
AcDbCircle
 10
125.5086334332935
 20
174.390229032992
 30
0.0
 40
1.0
100
AcDbArc
 50
90.0
 51
180.0
  0
ARC
  5
4B3
330
BD9
100
AcDbEntity
  8
Easyheater Boden
100
AcDbCircle
 10
125.5086334332935
 20
174.390229032992
 30
0.0
 40
1.0
100
AcDbArc
 50
0.0
 51
90.0
  0
LINE
  5
4B4
330
BD9
100
AcDbEntity
  8
Easyheater Boden
100
AcDbLine
 10
121.5084765774117
 20
145.390229032992
 30
0.0
 11
121.5084765774117
 21
145.390229032992
 31
0.0
  0
LINE
  5
4B5
330
BD9
100
AcDbEntity
  8
Easyheater Boden
100
AcDbLine
 10
122.5084765774117
 20
146.390229032992
 30
0.0
 11
122.5084765774117
 21
174.390229032992
 31
0.0
  0
LINE
  5
4B6
330
BD9
100
AcDbEntity
  8
Easyheater Boden
100
AcDbLine
 10
121.5084765774117
 20
175.390229032992
 30
0.0
 11
121.5084765774117
 21
175.390229032992
 31
0.0
  0
LINE
  5
4B7
330
BD9
100
AcDbEntity
  8
Easyheater Boden
100
AcDbLine
 10
120.5084765774117
 20
174.390229032992
 30
0.0
 11
120.5084765774117
 21
146.390229032992
 31
0.0
  0
ARC
  5
4B8
330
BD9
100
AcDbEntity
  8
Easyheater Boden
100
AcDbCircle
 10
121.5084765774117
 20
146.390229032992
 30
0.0
 40
1.0
100
AcDbArc
 50
180.0
 51
270.0
  0
ARC
  5
4B9
330
BD9
100
AcDbEntity
  8
Easyheater Boden
100
AcDbCircle
 10
121.5084765774117
 20
146.390229032992
 30
0.0
 40
1.0
100
AcDbArc
 50
270.0
 51
0.0
  0
ARC
  5
4BA
330
BD9
100
AcDbEntity
  8
Easyheater Boden
100
AcDbCircle
 10
121.5084765774117
 20
174.390229032992
 30
0.0
 40
1.0
100
AcDbArc
 50
90.0
 51
180.0
  0
ARC
  5
4BB
330
BD9
100
AcDbEntity
  8
Easyheater Boden
100
AcDbCircle
 10
121.5084765774117
 20
174.390229032992
 30
0.0
 40
1.0
100
AcDbArc
 50
0.0
 51
90.0
  0
LINE
  5
4BC
330
BD9
100
AcDbEntity
  8
Easyheater Boden
100
AcDbLine
 10
117.5083197215299
 20
145.390229032992
 30
0.0
 11
117.5083197215299
 21
145.390229032992
 31
0.0
  0
LINE
  5
4BD
330
BD9
100
AcDbEntity
  8
Easyheater Boden
100
AcDbLine
 10
118.5083197215299
 20
146.390229032992
 30
0.0
 11
118.5083197215299
 21
174.390229032992
 31
0.0
  0
LINE
  5
4BE
330
BD9
100
AcDbEntity
  8
Easyheater Boden
100
AcDbLine
 10
117.5083197215299
 20
175.390229032992
 30
0.0
 11
117.5083197215299
 21
175.390229032992
 31
0.0
  0
LINE
  5
4BF
330
BD9
100
AcDbEntity
  8
Easyheater Boden
100
AcDbLine
 10
116.5083197215299
 20
174.390229032992
 30
0.0
 11
116.5083197215299
 21
146.390229032992
 31
0.0
  0
ARC
  5
4C0
330
BD9
100
AcDbEntity
  8
Easyheater Boden
100
AcDbCircle
 10
117.5083197215299
 20
146.390229032992
 30
0.0
 40
1.0
100
AcDbArc
 50
180.0
 51
270.0
  0
ARC
  5
4C1
330
BD9
100
AcDbEntity
  8
Easyheater Boden
100
AcDbCircle
 10
117.5083197215299
 20
146.390229032992
 30
0.0
 40
1.0
100
AcDbArc
 50
270.0
 51
0.0
  0
ARC
  5
4C2
330
BD9
100
AcDbEntity
  8
Easyheater Boden
100
AcDbCircle
 10
117.5083197215299
 20
174.390229032992
 30
0.0
 40
1.0
100
AcDbArc
 50
90.0
 51
180.0
  0
ARC
  5
4C3
330
BD9
100
AcDbEntity
  8
Easyheater Boden
100
AcDbCircle
 10
117.5083197215299
 20
174.390229032992
 30
0.0
 40
1.0
100
AcDbArc
 50
0.0
 51
90.0
  0
LINE
  5
4C4
330
BD9
100
AcDbEntity
  8
Easyheater Boden
100
AcDbLine
 10
113.508162865648
 20
145.390229032992
 30
0.0
 11
113.508162865648
 21
145.390229032992
 31
0.0
  0
LINE
  5
4C5
330
BD9
100
AcDbEntity
  8
Easyheater Boden
100
AcDbLine
 10
114.508162865648
 20
146.390229032992
 30
0.0
 11
114.508162865648
 21
174.390229032992
 31
0.0
  0
LINE
  5
4C6
330
BD9
100
AcDbEntity
  8
Easyheater Boden
100
AcDbLine
 10
113.508162865648
 20
175.390229032992
 30
0.0
 11
113.508162865648
 21
175.390229032992
 31
0.0
  0
LINE
  5
4C7
330
BD9
100
AcDbEntity
  8
Easyheater Boden
100
AcDbLine
 10
112.508162865648
 20
174.390229032992
 30
0.0
 11
112.508162865648
 21
146.390229032992
 31
0.0
  0
ARC
  5
4C8
330
BD9
100
AcDbEntity
  8
Easyheater Boden
100
AcDbCircle
 10
113.508162865648
 20
146.390229032992
 30
0.0
 40
1.0
100
AcDbArc
 50
180.0
 51
270.0
  0
ARC
  5
4C9
330
BD9
100
AcDbEntity
  8
Easyheater Boden
100
AcDbCircle
 10
113.508162865648
 20
146.390229032992
 30
0.0
 40
1.0
100
AcDbArc
 50
270.0
 51
0.0
  0
ARC
  5
4CA
330
BD9
100
AcDbEntity
  8
Easyheater Boden
100
AcDbCircle
 10
113.508162865648
 20
174.390229032992
 30
0.0
 40
1.0
100
AcDbArc
 50
90.0
 51
180.0
  0
ARC
  5
4CB
330
BD9
100
AcDbEntity
  8
Easyheater Boden
100
AcDbCircle
 10
113.508162865648
 20
174.390229032992
 30
0.0
 40
1.0
100
AcDbArc
 50
0.0
 51
90.0
  0
LINE
  5
4CC
330
BD9
100
AcDbEntity
  8
Easyheater Boden
100
AcDbLine
 10
109.5080060097662
 20
145.390229032992
 30
0.0
 11
109.5080060097662
 21
145.390229032992
 31
0.0
  0
LINE
  5
4CD
330
BD9
100
AcDbEntity
  8
Easyheater Boden
100
AcDbLine
 10
110.5080060097662
 20
146.390229032992
 30
0.0
 11
110.5080060097662
 21
174.390229032992
 31
0.0
  0
LINE
  5
4CE
330
BD9
100
AcDbEntity
  8
Easyheater Boden
100
AcDbLine
 10
109.5080060097662
 20
175.390229032992
 30
0.0
 11
109.5080060097662
 21
175.390229032992
 31
0.0
  0
LINE
  5
4CF
330
BD9
100
AcDbEntity
  8
Easyheater Boden
100
AcDbLine
 10
108.5080060097662
 20
174.390229032992
 30
0.0
 11
108.5080060097662
 21
146.390229032992
 31
0.0
  0
ARC
  5
4D0
330
BD9
100
AcDbEntity
  8
Easyheater Boden
100
AcDbCircle
 10
109.5080060097662
 20
146.390229032992
 30
0.0
 40
1.0
100
AcDbArc
 50
180.0
 51
270.0
  0
ARC
  5
4D1
330
BD9
100
AcDbEntity
  8
Easyheater Boden
100
AcDbCircle
 10
109.5080060097662
 20
146.390229032992
 30
0.0
 40
1.0
100
AcDbArc
 50
270.0
 51
0.0
  0
ARC
  5
4D2
330
BD9
100
AcDbEntity
  8
Easyheater Boden
100
AcDbCircle
 10
109.5080060097662
 20
174.390229032992
 30
0.0
 40
1.0
100
AcDbArc
 50
90.0
 51
180.0
  0
ARC
  5
4D3
330
BD9
100
AcDbEntity
  8
Easyheater Boden
100
AcDbCircle
 10
109.5080060097662
 20
174.390229032992
 30
0.0
 40
1.0
100
AcDbArc
 50
0.0
 51
90.0
  0
ARC
  5
51E
330
BD9
100
AcDbEntity
  8
Easyheater Boden
100
AcDbCircle
 10
-13.43094680675206
 20
174.407112650373
 30
0.0
 40
1.0
100
AcDbArc
 50
90.0
 51
180.0
  0
ARC
  5
51F
330
BD9
100
AcDbEntity
  8
Easyheater Boden
100
AcDbCircle
 10
-13.43094680675206
 20
174.407112650373
 30
0.0
 40
1.0
100
AcDbArc
 50
0.0
 51
90.0
  0
LINE
  5
520
330
BD9
100
AcDbEntity
  8
Easyheater Boden
100
AcDbLine
 10
-17.4311036626339
 20
145.407112650373
 30
0.0
 11
-17.4311036626339
 21
145.407112650373
 31
0.0
  0
LINE
  5
521
330
BD9
100
AcDbEntity
  8
Easyheater Boden
100
AcDbLine
 10
-16.4311036626339
 20
146.407112650373
 30
0.0
 11
-16.4311036626339
 21
174.407112650373
 31
0.0
  0
LINE
  5
522
330
BD9
100
AcDbEntity
  8
Easyheater Boden
100
AcDbLine
 10
-17.4311036626339
 20
175.407112650373
 30
0.0
 11
-17.4311036626339
 21
175.407112650373
 31
0.0
  0
LINE
  5
523
330
BD9
100
AcDbEntity
  8
Easyheater Boden
100
AcDbLine
 10
-18.4311036626339
 20
174.407112650373
 30
0.0
 11
-18.4311036626339
 21
146.407112650373
 31
0.0
  0
ARC
  5
524
330
BD9
100
AcDbEntity
  8
Easyheater Boden
100
AcDbCircle
 10
-17.4311036626339
 20
146.407112650373
 30
0.0
 40
1.0
100
AcDbArc
 50
180.0
 51
270.0
  0
ARC
  5
525
330
BD9
100
AcDbEntity
  8
Easyheater Boden
100
AcDbCircle
 10
-17.4311036626339
 20
146.407112650373
 30
0.0
 40
1.0
100
AcDbArc
 50
270.0
 51
0.0
  0
ARC
  5
526
330
BD9
100
AcDbEntity
  8
Easyheater Boden
100
AcDbCircle
 10
-17.4311036626339
 20
174.407112650373
 30
0.0
 40
1.0
100
AcDbArc
 50
90.0
 51
180.0
  0
ARC
  5
527
330
BD9
100
AcDbEntity
  8
Easyheater Boden
100
AcDbCircle
 10
-17.4311036626339
 20
174.407112650373
 30
0.0
 40
1.0
100
AcDbArc
 50
0.0
 51
90.0
  0
LINE
  5
528
330
BD9
100
AcDbEntity
  8
Easyheater Boden
100
AcDbLine
 10
-21.43126051851574
 20
145.407112650373
 30
0.0
 11
-21.43126051851574
 21
145.407112650373
 31
0.0
  0
LINE
  5
529
330
BD9
100
AcDbEntity
  8
Easyheater Boden
100
AcDbLine
 10
-20.43126051851574
 20
146.407112650373
 30
0.0
 11
-20.43126051851574
 21
174.407112650373
 31
0.0
  0
LINE
  5
52A
330
BD9
100
AcDbEntity
  8
Easyheater Boden
100
AcDbLine
 10
-21.43126051851574
 20
175.407112650373
 30
0.0
 11
-21.43126051851574
 21
175.407112650373
 31
0.0
  0
LINE
  5
52B
330
BD9
100
AcDbEntity
  8
Easyheater Boden
100
AcDbLine
 10
-22.43126051851574
 20
174.407112650373
 30
0.0
 11
-22.43126051851574
 21
146.407112650373
 31
0.0
  0
ARC
  5
52C
330
BD9
100
AcDbEntity
  8
Easyheater Boden
100
AcDbCircle
 10
-21.43126051851574
 20
146.407112650373
 30
0.0
 40
1.0
100
AcDbArc
 50
180.0
 51
270.0
  0
ARC
  5
52D
330
BD9
100
AcDbEntity
  8
Easyheater Boden
100
AcDbCircle
 10
-21.43126051851574
 20
146.407112650373
 30
0.0
 40
1.0
100
AcDbArc
 50
270.0
 51
0.0
  0
ARC
  5
52E
330
BD9
100
AcDbEntity
  8
Easyheater Boden
100
AcDbCircle
 10
-21.43126051851574
 20
174.407112650373
 30
0.0
 40
1.0
100
AcDbArc
 50
90.0
 51
180.0
  0
ARC
  5
52F
330
BD9
100
AcDbEntity
  8
Easyheater Boden
100
AcDbCircle
 10
-21.43126051851574
 20
174.407112650373
 30
0.0
 40
1.0
100
AcDbArc
 50
0.0
 51
90.0
  0
LINE
  5
530
330
BD9
100
AcDbEntity
  8
Easyheater Boden
100
AcDbLine
 10
-25.43141737439758
 20
145.407112650373
 30
0.0
 11
-25.43141737439758
 21
145.407112650373
 31
0.0
  0
LINE
  5
531
330
BD9
100
AcDbEntity
  8
Easyheater Boden
100
AcDbLine
 10
-24.43141737439758
 20
146.407112650373
 30
0.0
 11
-24.43141737439758
 21
174.407112650373
 31
0.0
  0
LINE
  5
532
330
BD9
100
AcDbEntity
  8
Easyheater Boden
100
AcDbLine
 10
-25.43141737439758
 20
175.407112650373
 30
0.0
 11
-25.43141737439758
 21
175.407112650373
 31
0.0
  0
LINE
  5
533
330
BD9
100
AcDbEntity
  8
Easyheater Boden
100
AcDbLine
 10
-26.43141737439758
 20
174.407112650373
 30
0.0
 11
-26.43141737439758
 21
146.407112650373
 31
0.0
  0
ARC
  5
534
330
BD9
100
AcDbEntity
  8
Easyheater Boden
100
AcDbCircle
 10
-25.43141737439758
 20
146.407112650373
 30
0.0
 40
1.0
100
AcDbArc
 50
180.0
 51
270.0
  0
ARC
  5
535
330
BD9
100
AcDbEntity
  8
Easyheater Boden
100
AcDbCircle
 10
-25.43141737439758
 20
146.407112650373
 30
0.0
 40
1.0
100
AcDbArc
 50
270.0
 51
0.0
  0
ARC
  5
536
330
BD9
100
AcDbEntity
  8
Easyheater Boden
100
AcDbCircle
 10
-25.43141737439758
 20
174.407112650373
 30
0.0
 40
1.0
100
AcDbArc
 50
90.0
 51
180.0
  0
ARC
  5
537
330
BD9
100
AcDbEntity
  8
Easyheater Boden
100
AcDbCircle
 10
-25.43141737439758
 20
174.407112650373
 30
0.0
 40
1.0
100
AcDbArc
 50
0.0
 51
90.0
  0
LINE
  5
538
330
BD9
100
AcDbEntity
  8
Easyheater Boden
100
AcDbLine
 10
-29.43157423027942
 20
145.407112650373
 30
0.0
 11
-29.43157423027942
 21
145.407112650373
 31
0.0
  0
LINE
  5
539
330
BD9
100
AcDbEntity
  8
Easyheater Boden
100
AcDbLine
 10
-28.43157423027942
 20
146.407112650373
 30
0.0
 11
-28.43157423027942
 21
174.407112650373
 31
0.0
  0
LINE
  5
53A
330
BD9
100
AcDbEntity
  8
Easyheater Boden
100
AcDbLine
 10
-29.43157423027942
 20
175.407112650373
 30
0.0
 11
-29.43157423027942
 21
175.407112650373
 31
0.0
  0
LINE
  5
53B
330
BD9
100
AcDbEntity
  8
Easyheater Boden
100
AcDbLine
 10
-30.43157423027942
 20
174.407112650373
 30
0.0
 11
-30.43157423027942
 21
146.407112650373
 31
0.0
  0
ARC
  5
53C
330
BD9
100
AcDbEntity
  8
Easyheater Boden
100
AcDbCircle
 10
-29.43157423027942
 20
146.407112650373
 30
0.0
 40
1.0
100
AcDbArc
 50
180.0
 51
270.0
  0
ARC
  5
53D
330
BD9
100
AcDbEntity
  8
Easyheater Boden
100
AcDbCircle
 10
-29.43157423027942
 20
146.407112650373
 30
0.0
 40
1.0
100
AcDbArc
 50
270.0
 51
0.0
  0
ARC
  5
53E
330
BD9
100
AcDbEntity
  8
Easyheater Boden
100
AcDbCircle
 10
-29.43157423027942
 20
174.407112650373
 30
0.0
 40
1.0
100
AcDbArc
 50
90.0
 51
180.0
  0
ARC
  5
53F
330
BD9
100
AcDbEntity
  8
Easyheater Boden
100
AcDbCircle
 10
-29.43157423027942
 20
174.407112650373
 30
0.0
 40
1.0
100
AcDbArc
 50
0.0
 51
90.0
  0
LINE
  5
540
330
BD9
100
AcDbEntity
  8
Easyheater Boden
100
AcDbLine
 10
-33.43173108616126
 20
145.407112650373
 30
0.0
 11
-33.43173108616126
 21
145.407112650373
 31
0.0
  0
LINE
  5
541
330
BD9
100
AcDbEntity
  8
Easyheater Boden
100
AcDbLine
 10
-32.43173108616126
 20
146.407112650373
 30
0.0
 11
-32.43173108616126
 21
174.407112650373
 31
0.0
  0
LINE
  5
542
330
BD9
100
AcDbEntity
  8
Easyheater Boden
100
AcDbLine
 10
-33.43173108616126
 20
175.407112650373
 30
0.0
 11
-33.43173108616126
 21
175.407112650373
 31
0.0
  0
LINE
  5
543
330
BD9
100
AcDbEntity
  8
Easyheater Boden
100
AcDbLine
 10
-34.43173108616126
 20
174.407112650373
 30
0.0
 11
-34.43173108616126
 21
146.407112650373
 31
0.0
  0
ARC
  5
544
330
BD9
100
AcDbEntity
  8
Easyheater Boden
100
AcDbCircle
 10
-33.43173108616126
 20
146.407112650373
 30
0.0
 40
1.0
100
AcDbArc
 50
180.0
 51
270.0
  0
ARC
  5
545
330
BD9
100
AcDbEntity
  8
Easyheater Boden
100
AcDbCircle
 10
-33.43173108616126
 20
146.407112650373
 30
0.0
 40
1.0
100
AcDbArc
 50
270.0
 51
0.0
  0
ARC
  5
546
330
BD9
100
AcDbEntity
  8
Easyheater Boden
100
AcDbCircle
 10
-33.43173108616126
 20
174.407112650373
 30
0.0
 40
1.0
100
AcDbArc
 50
90.0
 51
180.0
  0
ARC
  5
547
330
BD9
100
AcDbEntity
  8
Easyheater Boden
100
AcDbCircle
 10
-33.43173108616126
 20
174.407112650373
 30
0.0
 40
1.0
100
AcDbArc
 50
0.0
 51
90.0
  0
LINE
  5
548
330
BD9
100
AcDbEntity
  8
Easyheater Boden
100
AcDbLine
 10
-37.4318879420431
 20
145.407112650373
 30
0.0
 11
-37.4318879420431
 21
145.407112650373
 31
0.0
  0
LINE
  5
549
330
BD9
100
AcDbEntity
  8
Easyheater Boden
100
AcDbLine
 10
-36.4318879420431
 20
146.407112650373
 30
0.0
 11
-36.4318879420431
 21
174.407112650373
 31
0.0
  0
LINE
  5
54A
330
BD9
100
AcDbEntity
  8
Easyheater Boden
100
AcDbLine
 10
-37.4318879420431
 20
175.407112650373
 30
0.0
 11
-37.4318879420431
 21
175.407112650373
 31
0.0
  0
LINE
  5
54B
330
BD9
100
AcDbEntity
  8
Easyheater Boden
100
AcDbLine
 10
-38.4318879420431
 20
174.407112650373
 30
0.0
 11
-38.4318879420431
 21
146.407112650373
 31
0.0
  0
ARC
  5
54C
330
BD9
100
AcDbEntity
  8
Easyheater Boden
100
AcDbCircle
 10
-37.4318879420431
 20
146.407112650373
 30
0.0
 40
1.0
100
AcDbArc
 50
180.0
 51
270.0
  0
ARC
  5
54D
330
BD9
100
AcDbEntity
  8
Easyheater Boden
100
AcDbCircle
 10
-37.4318879420431
 20
146.407112650373
 30
0.0
 40
1.0
100
AcDbArc
 50
270.0
 51
0.0
  0
ARC
  5
54E
330
BD9
100
AcDbEntity
  8
Easyheater Boden
100
AcDbCircle
 10
-37.4318879420431
 20
174.407112650373
 30
0.0
 40
1.0
100
AcDbArc
 50
90.0
 51
180.0
  0
ARC
  5
54F
330
BD9
100
AcDbEntity
  8
Easyheater Boden
100
AcDbCircle
 10
-37.4318879420431
 20
174.407112650373
 30
0.0
 40
1.0
100
AcDbArc
 50
0.0
 51
90.0
  0
LINE
  5
558
330
BD9
100
AcDbEntity
  8
Easyheater Boden
100
AcDbLine
 10
-9.43078995087022
 20
145.407112650373
 30
0.0
 11
-9.43078995087022
 21
145.407112650373
 31
0.0
  0
LINE
  5
559
330
BD9
100
AcDbEntity
  8
Easyheater Boden
100
AcDbLine
 10
-8.43078995087022
 20
146.407112650373
 30
0.0
 11
-8.43078995087022
 21
174.407112650373
 31
0.0
  0
LINE
  5
55A
330
BD9
100
AcDbEntity
  8
Easyheater Boden
100
AcDbLine
 10
-9.43078995087022
 20
175.407112650373
 30
0.0
 11
-9.43078995087022
 21
175.407112650373
 31
0.0
  0
LINE
  5
55B
330
BD9
100
AcDbEntity
  8
Easyheater Boden
100
AcDbLine
 10
-10.43078995087022
 20
174.407112650373
 30
0.0
 11
-10.43078995087022
 21
146.407112650373
 31
0.0
  0
ARC
  5
55C
330
BD9
100
AcDbEntity
  8
Easyheater Boden
100
AcDbCircle
 10
-9.43078995087022
 20
174.407112650373
 30
0.0
 40
1.0
100
AcDbArc
 50
90.0
 51
180.0
  0
ARC
  5
55D
330
BD9
100
AcDbEntity
  8
Easyheater Boden
100
AcDbCircle
 10
-9.43078995087022
 20
174.407112650373
 30
0.0
 40
1.0
100
AcDbArc
 50
0.0
 51
90.0
  0
LINE
  5
55E
330
BD9
100
AcDbEntity
  8
Easyheater Boden
100
AcDbLine
 10
-13.43094680675206
 20
145.407112650373
 30
0.0
 11
-13.43094680675206
 21
145.407112650373
 31
0.0
  0
LINE
  5
55F
330
BD9
100
AcDbEntity
  8
Easyheater Boden
100
AcDbLine
 10
-12.43094680675206
 20
146.407112650373
 30
0.0
 11
-12.43094680675206
 21
174.407112650373
 31
0.0
  0
LINE
  5
560
330
BD9
100
AcDbEntity
  8
Easyheater Boden
100
AcDbLine
 10
-13.43094680675206
 20
175.407112650373
 30
0.0
 11
-13.43094680675206
 21
175.407112650373
 31
0.0
  0
ARC
  5
561
330
BD9
100
AcDbEntity
  8
Easyheater Boden
100
AcDbCircle
 10
-9.43078995087022
 20
146.407112650373
 30
0.0
 40
1.0
100
AcDbArc
 50
180.0
 51
270.0
  0
LINE
  5
562
330
BD9
100
AcDbEntity
  8
Easyheater Boden
100
AcDbLine
 10
-14.43094680675206
 20
174.407112650373
 30
0.0
 11
-14.43094680675206
 21
146.407112650373
 31
0.0
  0
ARC
  5
563
330
BD9
100
AcDbEntity
  8
Easyheater Boden
100
AcDbCircle
 10
-9.43078995087022
 20
146.407112650373
 30
0.0
 40
1.0
100
AcDbArc
 50
270.0
 51
0.0
  0
ARC
  5
564
330
BD9
100
AcDbEntity
  8
Easyheater Boden
100
AcDbCircle
 10
-13.43094680675206
 20
146.407112650373
 30
0.0
 40
1.0
100
AcDbArc
 50
180.0
 51
270.0
  0
ARC
  5
565
330
BD9
100
AcDbEntity
  8
Easyheater Boden
100
AcDbCircle
 10
-13.43094680675206
 20
146.407112650373
 30
0.0
 40
1.0
100
AcDbArc
 50
270.0
 51
0.0
  0
ARC
  5
5A0
330
BD9
100
AcDbEntity
  8
Easyheater Deckel
100
AcDbCircle
 10
38.76790712509543
 20
158.903376831877
 30
0.0
 40
1.0
100
AcDbArc
 50
135.0
 51
231.3793702084422
  0
ARC
  5
5A1
330
BD9
100
AcDbEntity
  8
Easyheater Deckel
100
AcDbCircle
 10
35.92508438093935
 20
156.0605540877208
 30
0.0
 40
1.0
100
AcDbArc
 50
50.21590857045425
 51
135.0
  0
ARC
  5
5A2
330
BD9
100
AcDbEntity
  8
Easyheater Deckel
100
AcDbCircle
 10
35.92508438093935
 20
156.0605540877208
 30
0.0
 40
1.0
100
AcDbArc
 50
135.0
 51
230.2159085704543
  0
ARC
  5
5A3
330
BD9
100
AcDbEntity
  8
Easyheater Deckel
100
AcDbCircle
 10
33.08671498594563
 20
153.2221846927271
 30
0.0
 40
1.0
100
AcDbArc
 50
49.41172578576987
 51
135.0
  0
ARC
  5
5A4
330
BD9
100
AcDbEntity
  8
Easyheater Deckel
100
AcDbCircle
 10
33.08671498594563
 20
153.2221846927272
 30
0.0
 40
1.0
100
AcDbArc
 50
135.0
 51
229.4117257857703
  0
ARC
  5
5A5
330
BD9
100
AcDbEntity
  8
Easyheater Deckel
100
AcDbCircle
 10
30.25828786119953
 20
189.8827902523739
 30
0.0
 40
1.0
100
AcDbArc
 50
45.0
 51
139.4117257857695
  0
ARC
  5
5A6
330
BD9
100
AcDbEntity
  8
Easyheater Deckel
100
AcDbCircle
 10
30.25828786119953
 20
189.8827902523738
 30
0.0
 40
1.0
100
AcDbArc
 50
319.4117257857696
 51
45.0
  0
ARC
  5
5A7
330
BD9
100
AcDbEntity
  8
Easyheater Deckel
100
AcDbCircle
 10
33.09665725619313
 20
187.0444208573802
 30
0.0
 40
1.0
100
AcDbArc
 50
45.0
 51
140.2159085704543
  0
ARC
  5
5A8
330
BD9
100
AcDbEntity
  8
Easyheater Deckel
100
AcDbCircle
 10
33.09665725619322
 20
187.0444208573801
 30
0.0
 40
1.0
100
AcDbArc
 50
320.2159085704542
 51
45.0
  0
ARC
  5
5A9
330
BD9
100
AcDbEntity
  8
Easyheater Deckel
100
AcDbCircle
 10
35.93633761187393
 20
184.2047405016995
 30
0.0
 40
1.0
100
AcDbArc
 50
45.0
 51
141.1578057835888
  0
ARC
  5
5AA
330
BD9
100
AcDbEntity
  8
Easyheater Deckel
100
AcDbCircle
 10
35.93948000034933
 20
184.201598113224
 30
0.0
 40
1.0
100
AcDbArc
 50
321.379370208443
 51
45.0
  0
ARC
  5
5AB
330
BD9
100
AcDbEntity
  8
Easyheater Deckel
100
AcDbCircle
 10
38.79063166989013
 20
181.3504464436832
 30
0.0
 40
1.0
100
AcDbArc
 50
45.0
 51
143.2132107017363
  0
ARC
  5
5AC
330
BD9
100
AcDbEntity
  8
Easyheater Deckel
100
AcDbCircle
 10
38.79063166989013
 20
181.3504464436832
 30
0.0
 40
1.0
100
AcDbArc
 50
323.2132107017379
 51
45.0
  0
ARC
  5
5AD
330
BD9
100
AcDbEntity
  8
Easyheater Deckel
100
AcDbCircle
 10
33.08671498594563
 20
192.7112173771201
 30
0.0
 40
1.0
100
AcDbArc
 50
130.5882742142304
 51
225.0
  0
ARC
  5
5AE
330
BD9
100
AcDbEntity
  8
Easyheater Deckel
100
AcDbCircle
 10
33.08671498594563
 20
192.7112173771201
 30
0.0
 40
1.0
100
AcDbArc
 50
225.0
 51
310.5882742142304
  0
ARC
  5
5AF
330
BD9
100
AcDbEntity
  8
Easyheater Deckel
100
AcDbCircle
 10
35.92508438093935
 20
189.8728479821264
 30
0.0
 40
1.0
100
AcDbArc
 50
129.7840914295457
 51
225.0
  0
ARC
  5
5B0
330
BD9
100
AcDbEntity
  8
Easyheater Deckel
100
AcDbCircle
 10
35.92508438093935
 20
189.8728479821264
 30
0.0
 40
1.0
100
AcDbArc
 50
225.0
 51
309.7840914295458
  0
ARC
  5
5B1
330
BD9
100
AcDbEntity
  8
Easyheater Deckel
100
AcDbCircle
 10
38.76790712509554
 20
187.0300252379702
 30
0.0
 40
1.0
100
AcDbArc
 50
128.6206297915587
 51
225.0
  0
ARC
  5
5B2
330
BD9
100
AcDbEntity
  8
Easyheater Deckel
100
AcDbCircle
 10
38.76790712509543
 20
187.0300252379702
 30
0.0
 40
1.0
100
AcDbArc
 50
225.0
 51
308.620629791557
  0
ARC
  5
5B3
330
BD9
100
AcDbEntity
  8
Easyheater Deckel
100
AcDbCircle
 10
41.61905879463622
 20
184.1788735684295
 30
0.0
 40
1.0
100
AcDbArc
 50
126.7867892982604
 51
225.0
  0
ARC
  5
5B4
330
BD9
100
AcDbEntity
  8
Easyheater Deckel
100
AcDbCircle
 10
41.61905879463622
 20
184.1788735684294
 30
0.0
 40
1.0
100
AcDbArc
 50
225.0
 51
306.7867892982621
  0
ARC
  5
5B5
330
BD9
100
AcDbEntity
  8
Easyheater Deckel
100
AcDbCircle
 10
66.91889342084613
 20
192.7112173771201
 30
0.0
 40
1.0
100
AcDbArc
 50
315.0
 51
49.41172578577036
  0
ARC
  5
5B6
330
BD9
100
AcDbEntity
  8
Easyheater Deckel
100
AcDbCircle
 10
66.91889342084633
 20
192.7112173771201
 30
0.0
 40
1.0
100
AcDbArc
 50
229.4117257857698
 51
315.0
  0
ARC
  5
5B7
330
BD9
100
AcDbEntity
  8
Easyheater Deckel
100
AcDbCircle
 10
64.08052402585244
 20
189.8728479821264
 30
0.0
 40
1.0
100
AcDbArc
 50
315.0
 51
50.21590857045425
  0
ARC
  5
5B8
330
BD9
100
AcDbEntity
  8
Easyheater Deckel
100
AcDbCircle
 10
64.08052402585253
 20
189.8728479821264
 30
0.0
 40
1.0
100
AcDbArc
 50
230.2159085704538
 51
315.0
  0
ARC
  5
5B9
330
BD9
100
AcDbEntity
  8
Easyheater Deckel
100
AcDbCircle
 10
61.23770128169632
 20
187.0300252379702
 30
0.0
 40
1.0
100
AcDbArc
 50
315.0
 51
51.3793702084422
  0
ARC
  5
5BA
330
BD9
100
AcDbEntity
  8
Easyheater Deckel
100
AcDbCircle
 10
61.23770128169632
 20
187.0300252379702
 30
0.0
 40
1.0
100
AcDbArc
 50
231.379370208443
 51
315.0
  0
ARC
  5
5BB
330
BD9
100
AcDbEntity
  8
Easyheater Deckel
100
AcDbCircle
 10
58.38654961215564
 20
184.1788735684294
 30
0.0
 40
1.0
100
AcDbArc
 50
315.0
 51
53.21321070173887
  0
ARC
  5
5BC
330
BD9
100
AcDbEntity
  8
Easyheater Deckel
100
AcDbCircle
 10
58.38654961215564
 20
184.1788735684295
 30
0.0
 40
1.0
100
AcDbArc
 50
233.2132107017374
 51
315.0
  0
ARC
  5
5BD
330
BD9
100
AcDbEntity
  8
Easyheater Deckel
100
AcDbCircle
 10
61.21497673690182
 20
181.3504464436832
 30
0.0
 40
1.0
100
AcDbArc
 50
135.0
 51
216.7867892982622
  0
ARC
  5
5BE
330
BD9
100
AcDbEntity
  8
Easyheater Deckel
100
AcDbCircle
 10
61.21497673690174
 20
181.3504464436832
 30
0.0
 40
1.0
100
AcDbArc
 50
36.78678929826112
 51
135.0
  0
ARC
  5
5BF
330
BD9
100
AcDbEntity
  8
Easyheater Deckel
100
AcDbCircle
 10
64.06612840644263
 20
184.201598113224
 30
0.0
 40
1.0
100
AcDbArc
 50
135.0
 51
218.6206297915567
  0
ARC
  5
5C0
330
BD9
100
AcDbEntity
  8
Easyheater Deckel
100
AcDbCircle
 10
64.06612840644263
 20
184.2015981132241
 30
0.0
 40
1.0
100
AcDbArc
 50
38.62062979155778
 51
135.0
  0
ARC
  5
5C1
330
BD9
100
AcDbEntity
  8
Easyheater Deckel
100
AcDbCircle
 10
66.90895115059863
 20
187.0444208573802
 30
0.0
 40
1.0
100
AcDbArc
 50
135.0
 51
219.7840914295457
  0
ARC
  5
5C2
330
BD9
100
AcDbEntity
  8
Easyheater Deckel
100
AcDbCircle
 10
66.90895115059863
 20
187.0444208573802
 30
0.0
 40
1.0
100
AcDbArc
 50
39.78409142954616
 51
135.0
  0
ARC
  5
5C3
330
BD9
100
AcDbEntity
  8
Easyheater Deckel
100
AcDbCircle
 10
69.74732054559243
 20
189.8827902523739
 30
0.0
 40
1.0
100
AcDbArc
 50
135.0
 51
220.5882742142301
  0
ARC
  5
5C4
330
BD9
100
AcDbEntity
  8
Easyheater Deckel
100
AcDbCircle
 10
69.74732054559243
 20
189.8827902523739
 30
0.0
 40
1.0
100
AcDbArc
 50
40.58827421422966
 51
135.0
  0
ARC
  5
5C5
330
BD9
100
AcDbEntity
  8
Easyheater Deckel
100
AcDbCircle
 10
58.38654961215564
 20
161.7545285014178
 30
0.0
 40
1.0
100
AcDbArc
 50
45.0
 51
126.786789298262
  0
ARC
  5
5C6
330
BD9
100
AcDbEntity
  8
Easyheater Deckel
100
AcDbCircle
 10
58.38654961215544
 20
161.7545285014179
 30
0.0
 40
1.0
100
AcDbArc
 50
306.7867892982621
 51
45.0
  0
ARC
  5
5C7
330
BD9
100
AcDbEntity
  8
Easyheater Deckel
100
AcDbCircle
 10
61.23770128169632
 20
158.903376831877
 30
0.0
 40
1.0
100
AcDbArc
 50
45.0
 51
128.620629791557
  0
ARC
  5
5C8
330
BD9
100
AcDbEntity
  8
Easyheater Deckel
100
AcDbCircle
 10
61.23770128169632
 20
158.903376831877
 30
0.0
 40
1.0
100
AcDbArc
 50
308.6206297915587
 51
45.0
  0
ARC
  5
5C9
330
BD9
100
AcDbEntity
  8
Easyheater Deckel
100
AcDbCircle
 10
64.08052402585244
 20
156.0605540877208
 30
0.0
 40
1.0
100
AcDbArc
 50
45.0
 51
129.7840914295458
  0
ARC
  5
5CA
330
BD9
100
AcDbEntity
  8
Easyheater Deckel
100
AcDbCircle
 10
64.08052402585253
 20
156.0605540877208
 30
0.0
 40
1.0
100
AcDbArc
 50
309.7840914295457
 51
45.0
  0
ARC
  5
5CB
330
BD9
100
AcDbEntity
  8
Easyheater Deckel
100
AcDbCircle
 10
66.91889342084613
 20
153.2221846927271
 30
0.0
 40
1.0
100
AcDbArc
 50
45.0
 51
130.5882742142305
  0
ARC
  5
5CC
330
BD9
100
AcDbEntity
  8
Easyheater Deckel
100
AcDbCircle
 10
66.91889342084613
 20
153.2221846927272
 30
0.0
 40
1.0
100
AcDbArc
 50
310.5882742142304
 51
45.0
  0
ARC
  5
5CD
330
BD9
100
AcDbEntity
  8
Easyheater Deckel
100
AcDbCircle
 10
69.74732054559243
 20
156.0506118174733
 30
0.0
 40
1.0
100
AcDbArc
 50
225.0
 51
319.4117257857695
  0
ARC
  5
5CE
330
BD9
100
AcDbEntity
  8
Easyheater Deckel
100
AcDbCircle
 10
69.74732054559243
 20
156.0506118174734
 30
0.0
 40
1.0
100
AcDbArc
 50
139.4117257857695
 51
225.0
  0
ARC
  5
5CF
330
BD9
100
AcDbEntity
  8
Easyheater Deckel
100
AcDbCircle
 10
66.90895115059863
 20
158.8889812124671
 30
0.0
 40
1.0
100
AcDbArc
 50
225.0
 51
320.2159085704542
  0
ARC
  5
5D0
330
BD9
100
AcDbEntity
  8
Easyheater Deckel
100
AcDbCircle
 10
66.90895115059863
 20
158.8889812124671
 30
0.0
 40
1.0
100
AcDbArc
 50
140.2159085704543
 51
225.0
  0
ARC
  5
5D1
330
BD9
100
AcDbEntity
  8
Easyheater Deckel
100
AcDbCircle
 10
64.06612840644263
 20
161.7318039566232
 30
0.0
 40
1.0
100
AcDbArc
 50
225.0
 51
321.3793702084413
  0
ARC
  5
5D2
330
BD9
100
AcDbEntity
  8
Easyheater Deckel
100
AcDbCircle
 10
64.06612840644243
 20
161.7318039566233
 30
0.0
 40
1.0
100
AcDbArc
 50
141.379370208443
 51
225.0
  0
ARC
  5
5D3
330
BD9
100
AcDbEntity
  8
Easyheater Deckel
100
AcDbCircle
 10
61.21497673690174
 20
164.582955626164
 30
0.0
 40
1.0
100
AcDbArc
 50
225.0
 51
323.2132107017396
  0
ARC
  5
5D4
330
BD9
100
AcDbEntity
  8
Easyheater Deckel
100
AcDbCircle
 10
61.21497673690174
 20
164.582955626164
 30
0.0
 40
1.0
100
AcDbArc
 50
143.2132107017379
 51
225.0
  0
LINE
  5
5D9
330
BD9
100
AcDbEntity
  8
Easyheater Deckel
100
AcDbLine
 10
30.96539464238602
 20
190.5898970335604
 30
0.0
 11
30.96539464238602
 21
190.5898970335603
 31
0.0
  0
LINE
  5
5DA
330
BD9
100
AcDbEntity
  8
Easyheater Deckel
100
AcDbLine
 10
33.80376403737963
 20
187.7515276385668
 30
0.0
 11
33.80376403737974
 21
187.7515276385667
 31
0.0
  0
LINE
  5
5DC
330
BD9
100
AcDbEntity
  8
Easyheater Deckel
100
AcDbLine
 10
39.49773845107674
 20
182.0575532248698
 30
0.0
 11
39.49773845107674
 21
182.0575532248698
 31
0.0
  0
LINE
  5
5DD
330
BD9
100
AcDbEntity
  8
Easyheater Deckel
100
AcDbLine
 10
40.91195201344973
 20
183.4717667872429
 30
0.0
 11
40.91195201344973
 21
183.4717667872429
 31
0.0
  0
LINE
  5
5DE
330
BD9
100
AcDbEntity
  8
Easyheater Deckel
100
AcDbLine
 10
38.06080034390893
 20
186.3229184567837
 30
0.0
 11
38.06080034390893
 21
186.3229184567837
 31
0.0
  0
LINE
  5
5DF
330
BD9
100
AcDbEntity
  8
Easyheater Deckel
100
AcDbLine
 10
35.21797759975274
 20
189.1657412009399
 30
0.0
 11
35.21797759975274
 21
189.1657412009399
 31
0.0
  0
LINE
  5
5E0
330
BD9
100
AcDbEntity
  8
Easyheater Deckel
100
AcDbLine
 10
32.37960820475913
 20
192.0041105959335
 30
0.0
 11
32.37960820475913
 21
192.0041105959335
 31
0.0
  0
LINE
  5
5E1
330
BD9
100
AcDbEntity
  8
Easyheater Deckel
100
AcDbLine
 10
59.09365639334222
 20
183.4717667872429
 30
0.0
 11
59.09365639334202
 21
183.4717667872429
 31
0.0
  0
LINE
  5
5E2
330
BD9
100
AcDbEntity
  8
Easyheater Deckel
100
AcDbLine
 10
61.94480806288282
 20
186.3229184567837
 30
0.0
 11
61.94480806288282
 21
186.3229184567837
 31
0.0
  0
LINE
  5
5E3
330
BD9
100
AcDbEntity
  8
Easyheater Deckel
100
AcDbLine
 10
64.78763080703905
 20
189.1657412009398
 30
0.0
 11
64.78763080703905
 21
189.1657412009398
 31
0.0
  0
LINE
  5
5E4
330
BD9
100
AcDbEntity
  8
Easyheater Deckel
100
AcDbLine
 10
67.62600020203294
 20
192.0041105959336
 30
0.0
 11
67.62600020203283
 21
192.0041105959335
 31
0.0
  0
LINE
  5
5E5
330
BD9
100
AcDbEntity
  8
Easyheater Deckel
100
AcDbLine
 10
69.04021376440593
 20
190.5898970335604
 30
0.0
 11
69.04021376440593
 21
190.5898970335604
 31
0.0
  0
LINE
  5
5E6
330
BD9
100
AcDbEntity
  8
Easyheater Deckel
100
AcDbLine
 10
66.20184436941204
 20
187.7515276385668
 30
0.0
 11
66.20184436941204
 21
187.7515276385668
 31
0.0
  0
LINE
  5
5E7
330
BD9
100
AcDbEntity
  8
Easyheater Deckel
100
AcDbLine
 10
63.35902162525613
 20
184.9087048944106
 30
0.0
 11
63.35902162525604
 21
184.9087048944106
 31
0.0
  0
LINE
  5
5E8
330
BD9
100
AcDbEntity
  8
Easyheater Deckel
100
AcDbLine
 10
60.50786995571524
 20
182.0575532248697
 30
0.0
 11
60.50786995571524
 21
182.0575532248698
 31
0.0
  0
LINE
  5
5E9
330
BD9
100
AcDbEntity
  8
Easyheater Deckel
100
AcDbLine
 10
69.04021376440593
 20
155.3435050362868
 30
0.0
 11
69.04021376440585
 21
155.3435050362869
 31
0.0
  0
LINE
  5
5EA
330
BD9
100
AcDbEntity
  8
Easyheater Deckel
100
AcDbLine
 10
66.20184436941213
 20
158.1818744312805
 30
0.0
 11
66.20184436941213
 21
158.1818744312805
 31
0.0
  0
LINE
  5
5EB
330
BD9
100
AcDbEntity
  8
Easyheater Deckel
100
AcDbLine
 10
63.35902162525604
 20
161.0246971754366
 30
0.0
 11
63.35902162525604
 21
161.0246971754367
 31
0.0
  0
LINE
  5
5EC
330
BD9
100
AcDbEntity
  8
Easyheater Deckel
100
AcDbLine
 10
60.50786995571524
 20
163.8758488449775
 30
0.0
 11
60.50786995571524
 21
163.8758488449775
 31
0.0
  0
LINE
  5
5ED
330
BD9
100
AcDbEntity
  8
Easyheater Deckel
100
AcDbLine
 10
59.09365639334202
 20
162.4616352826043
 30
0.0
 11
59.09365639334194
 21
162.4616352826044
 31
0.0
  0
LINE
  5
5EE
330
BD9
100
AcDbEntity
  8
Easyheater Deckel
100
AcDbLine
 10
61.94480806288282
 20
159.6104836130636
 30
0.0
 11
61.94480806288302
 21
159.6104836130635
 31
0.0
  0
LINE
  5
5EF
330
BD9
100
AcDbEntity
  8
Easyheater Deckel
100
AcDbLine
 10
64.78763080703905
 20
156.7676608689074
 30
0.0
 11
64.78763080703905
 21
156.7676608689074
 31
0.0
  0
LINE
  5
5F0
330
BD9
100
AcDbEntity
  8
Easyheater Deckel
100
AcDbLine
 10
67.62600020203283
 20
153.9292914739137
 30
0.0
 11
67.62600020203263
 21
153.9292914739137
 31
0.0
  0
LINE
  5
5F1
330
BD9
100
AcDbEntity
  8
Easyheater Deckel
100
AcDbLine
 10
30.96539464238602
 20
155.3435050362868
 30
0.0
 11
30.96539464238602
 21
155.3435050362868
 31
0.0
  0
LINE
  5
5F2
330
BD9
100
AcDbEntity
  8
Easyheater Deckel
100
AcDbLine
 10
33.80376403737963
 20
158.1818744312806
 30
0.0
 11
33.80376403737963
 21
158.1818744312805
 31
0.0
  0
LINE
  5
5F3
330
BD9
100
AcDbEntity
  8
Easyheater Deckel
100
AcDbLine
 10
36.71577928991163
 20
161.0938896838124
 30
0.0
 11
36.64658678153582
 21
161.0246971754366
 31
0.0
  0
LINE
  5
5F4
330
BD9
100
AcDbEntity
  8
Easyheater Deckel
100
AcDbLine
 10
39.49773845107662
 20
163.8758488449773
 30
0.0
 11
39.49773845107662
 21
163.8758488449774
 31
0.0
  0
LINE
  5
5F5
330
BD9
100
AcDbEntity
  8
Easyheater Deckel
100
AcDbLine
 10
40.91195201344973
 20
162.4616352826043
 30
0.0
 11
40.91195201344973
 21
162.4616352826043
 31
0.0
  0
LINE
  5
5F6
330
BD9
100
AcDbEntity
  8
Easyheater Deckel
100
AcDbLine
 10
38.06080034390893
 20
159.6104836130635
 30
0.0
 11
38.06080034390893
 21
159.6104836130635
 31
0.0
  0
LINE
  5
5F7
330
BD9
100
AcDbEntity
  8
Easyheater Deckel
100
AcDbLine
 10
35.21797759975274
 20
156.7676608689074
 30
0.0
 11
35.21797759975274
 21
156.7676608689075
 31
0.0
  0
LINE
  5
5F8
330
BD9
100
AcDbEntity
  8
Easyheater Deckel
100
AcDbLine
 10
32.37960820475913
 20
153.9292914739137
 30
0.0
 11
32.37960820475913
 21
153.9292914739137
 31
0.0
  0
ARC
  5
5F9
330
BD9
100
AcDbEntity
  8
Easyheater Deckel
100
AcDbCircle
 10
50.00280420339603
 20
172.9667010349235
 30
0.0
 40
12.9999999999999
100
AcDbArc
 50
143.2132107017372
 51
216.7867892982621
  0
ARC
  5
5FA
330
BD9
100
AcDbEntity
  8
Easyheater Deckel
100
AcDbCircle
 10
50.00280420339603
 20
172.9667010349235
 30
0.0
 40
14.9999999999999
100
AcDbArc
 50
143.213210701737
 51
216.7867892982621
  0
ARC
  5
5FB
330
BD9
100
AcDbEntity
  8
Easyheater Deckel
100
AcDbCircle
 10
50.00280420339603
 20
172.9667010349236
 30
0.0
 40
17.00000000000015
100
AcDbArc
 50
141.3793702084431
 51
218.6206297915568
  0
ARC
  5
5FC
330
BD9
100
AcDbEntity
  8
Easyheater Deckel
100
AcDbCircle
 10
49.79225314233354
 20
173.0474882598645
 30
0.0
 40
18.78962261474827
100
AcDbArc
 50
141.1578057835881
 51
219.2121743316121
  0
ARC
  5
5FD
330
BD9
100
AcDbEntity
  8
Easyheater Deckel
100
AcDbCircle
 10
50.00280420339603
 20
172.9667010349235
 30
0.0
 40
20.99999999999996
100
AcDbArc
 50
140.215908570454
 51
219.7840914295457
  0
ARC
  5
5FE
330
BD9
100
AcDbEntity
  8
Easyheater Deckel
100
AcDbCircle
 10
50.00280420339603
 20
172.9667010349236
 30
0.0
 40
23.00000000000001
100
AcDbArc
 50
140.2159085704542
 51
219.7840914295458
  0
ARC
  5
5FF
330
BD9
100
AcDbEntity
  8
Easyheater Deckel
100
AcDbCircle
 10
50.00280420339603
 20
172.9667010349236
 30
0.0
 40
24.99999999999972
100
AcDbArc
 50
139.4117257857696
 51
220.5882742142301
  0
ARC
  5
600
330
BD9
100
AcDbEntity
  8
Easyheater Deckel
100
AcDbCircle
 10
50.00280420339603
 20
172.9667010349236
 30
0.0
 40
27.00000000000004
100
AcDbArc
 50
139.4117257857702
 51
220.5882742142297
  0
ARC
  5
601
330
BD9
100
AcDbEntity
  8
Easyheater Deckel
100
AcDbCircle
 10
50.00280420339603
 20
172.9667010349235
 30
0.0
 40
27.00000000000007
100
AcDbArc
 50
49.41172578577036
 51
130.5882742142297
  0
ARC
  5
602
330
BD9
100
AcDbEntity
  8
Easyheater Deckel
100
AcDbCircle
 10
50.00280420339634
 20
172.9667010349238
 30
0.0
 40
24.99999999999983
100
AcDbArc
 50
49.41172578576995
 51
130.5882742142304
  0
ARC
  5
603
330
BD9
100
AcDbEntity
  8
Easyheater Deckel
100
AcDbCircle
 10
50.00280420339603
 20
172.9667010349235
 30
0.0
 40
23.00000000000003
100
AcDbArc
 50
50.2159085704541
 51
129.7840914295458
  0
ARC
  5
604
330
BD9
100
AcDbEntity
  8
Easyheater Deckel
100
AcDbCircle
 10
50.00280420339603
 20
172.9667010349236
 30
0.0
 40
20.99999999999999
100
AcDbArc
 50
50.21590857045418
 51
129.784091429546
  0
ARC
  5
605
330
BD9
100
AcDbEntity
  8
Easyheater Deckel
100
AcDbCircle
 10
50.00280420339634
 20
172.9667010349238
 30
0.0
 40
18.99999999999971
100
AcDbArc
 50
51.3793702084422
 51
128.6206297915579
  0
ARC
  5
606
330
BD9
100
AcDbEntity
  8
Easyheater Deckel
100
AcDbCircle
 10
50.00280420339603
 20
172.9667010349235
 30
0.0
 40
17.00000000000016
100
AcDbArc
 50
51.37937020844323
 51
128.6206297915568
  0
ARC
  5
607
330
BD9
100
AcDbEntity
  8
Easyheater Deckel
100
AcDbCircle
 10
50.00280420339603
 20
172.9667010349235
 30
0.0
 40
15.00000000000025
100
AcDbArc
 50
53.21321070173872
 51
126.7867892982609
  0
ARC
  5
608
330
BD9
100
AcDbEntity
  8
Easyheater Deckel
100
AcDbCircle
 10
50.00280420339634
 20
172.9667010349238
 30
0.0
 40
12.99999999999977
100
AcDbArc
 50
53.21321070173744
 51
126.7867892982628
  0
ARC
  5
609
330
BD9
100
AcDbEntity
  8
Easyheater Deckel
100
AcDbCircle
 10
50.00280420339592
 20
172.9667010349234
 30
0.0
 40
12.99999999999989
100
AcDbArc
 50
233.2132107017379
 51
306.7867892982626
  0
ARC
  5
60A
330
BD9
100
AcDbEntity
  8
Easyheater Deckel
100
AcDbCircle
 10
50.00280420339615
 20
172.9667010349237
 30
0.0
 40
12.99999999999978
100
AcDbArc
 50
323.2132107017375
 51
36.78678929826229
  0
ARC
  5
60B
330
BD9
100
AcDbEntity
  8
Easyheater Deckel
100
AcDbCircle
 10
50.00280420339603
 20
172.9667010349236
 30
0.0
 40
15.00000000000017
100
AcDbArc
 50
323.2132107017392
 51
36.78678929826123
  0
ARC
  5
60C
330
BD9
100
AcDbEntity
  8
Easyheater Deckel
100
AcDbCircle
 10
50.00280420339603
 20
172.9667010349235
 30
0.0
 40
14.99999999999978
100
AcDbArc
 50
233.2132107017381
 51
306.7867892982627
  0
ARC
  5
60D
330
BD9
100
AcDbEntity
  8
Easyheater Deckel
100
AcDbCircle
 10
50.00280420339615
 20
172.9667010349237
 30
0.0
 40
17.00000000000016
100
AcDbArc
 50
231.3793702084432
 51
308.620629791557
  0
ARC
  5
60E
330
BD9
100
AcDbEntity
  8
Easyheater Deckel
100
AcDbCircle
 10
50.00280420339603
 20
172.9667010349235
 30
0.0
 40
18.9999999999998
100
AcDbArc
 50
231.3793702084422
 51
308.6206297915579
  0
ARC
  5
60F
330
BD9
100
AcDbEntity
  8
Easyheater Deckel
100
AcDbCircle
 10
50.00280420339603
 20
172.9667010349235
 30
0.0
 40
21.0
100
AcDbArc
 50
230.2159085704541
 51
309.784091429546
  0
ARC
  5
610
330
BD9
100
AcDbEntity
  8
Easyheater Deckel
100
AcDbCircle
 10
50.00280420339603
 20
172.9667010349236
 30
0.0
 40
23.00000000000006
100
AcDbArc
 50
230.2159085704541
 51
309.7840914295458
  0
ARC
  5
611
330
BD9
100
AcDbEntity
  8
Easyheater Deckel
100
AcDbCircle
 10
50.00280420339592
 20
172.9667010349234
 30
0.0
 40
24.99999999999987
100
AcDbArc
 50
229.4117257857699
 51
310.5882742142303
  0
ARC
  5
612
330
BD9
100
AcDbEntity
  8
Easyheater Deckel
100
AcDbCircle
 10
50.00280420339603
 20
172.9667010349236
 30
0.0
 40
27.00000000000002
100
AcDbArc
 50
229.4117257857702
 51
310.5882742142298
  0
ARC
  5
613
330
BD9
100
AcDbEntity
  8
Easyheater Deckel
100
AcDbCircle
 10
50.00280420339603
 20
172.9667010349236
 30
0.0
 40
17.00000000000006
100
AcDbArc
 50
321.3793702084431
 51
38.62062979155687
  0
ARC
  5
614
330
BD9
100
AcDbEntity
  8
Easyheater Deckel
100
AcDbCircle
 10
50.00280420339615
 20
172.9667010349237
 30
0.0
 40
18.99999999999975
100
AcDbArc
 50
321.379370208442
 51
38.62062979155778
  0
ARC
  5
615
330
BD9
100
AcDbEntity
  8
Easyheater Deckel
100
AcDbCircle
 10
50.00280420339603
 20
172.9667010349236
 30
0.0
 40
20.99999999999993
100
AcDbArc
 50
320.215908570454
 51
39.78409142954595
  0
ARC
  5
616
330
BD9
100
AcDbEntity
  8
Easyheater Deckel
100
AcDbCircle
 10
50.00280420339603
 20
172.9667010349235
 30
0.0
 40
22.99999999999999
100
AcDbArc
 50
320.2159085704542
 51
39.7840914295459
  0
ARC
  5
617
330
BD9
100
AcDbEntity
  8
Easyheater Deckel
100
AcDbCircle
 10
50.00280420339615
 20
172.9667010349237
 30
0.0
 40
24.99999999999979
100
AcDbArc
 50
319.4117257857698
 51
40.58827421423007
  0
ARC
  5
618
330
BD9
100
AcDbEntity
  8
Easyheater Deckel
100
AcDbCircle
 10
50.00280420339603
 20
172.9667010349235
 30
0.0
 40
27.00000000000007
100
AcDbArc
 50
319.4117257857703
 51
40.58827421422966
  0
ARC
  5
619
330
BD9
100
AcDbEntity
  8
Easyheater Deckel
100
AcDbCircle
 10
30.25828786119953
 20
156.0506118174734
 30
0.0
 40
1.0
100
AcDbArc
 50
220.5882742142296
 51
315.0
  0
ARC
  5
61A
330
BD9
100
AcDbEntity
  8
Easyheater Deckel
100
AcDbCircle
 10
30.25828786119953
 20
156.0506118174733
 30
0.0
 40
1.0
100
AcDbArc
 50
315.0
 51
40.58827421423013
  0
ARC
  5
61B
330
BD9
100
AcDbEntity
  8
Easyheater Deckel
100
AcDbCircle
 10
33.09665725619313
 20
158.8889812124671
 30
0.0
 40
1.0
100
AcDbArc
 50
219.7840914295457
 51
315.0
  0
ARC
  5
61C
330
BD9
100
AcDbEntity
  8
Easyheater Deckel
100
AcDbCircle
 10
33.09665725619313
 20
158.8889812124671
 30
0.0
 40
1.0
100
AcDbArc
 50
315.0
 51
39.78409142954575
  0
ARC
  5
61D
330
BD9
100
AcDbEntity
  8
Easyheater Deckel
100
AcDbCircle
 10
36.00867250872513
 20
161.800996464999
 30
0.0
 40
1.0
100
AcDbArc
 50
219.212174331612
 51
315.0
  0
ARC
  5
61E
330
BD9
100
AcDbEntity
  8
Easyheater Deckel
100
AcDbCircle
 10
35.93948000034933
 20
161.7318039566232
 30
0.0
 40
1.0
100
AcDbArc
 50
315.0
 51
38.62062979155666
  0
ARC
  5
61F
330
BD9
100
AcDbEntity
  8
Easyheater Deckel
100
AcDbCircle
 10
38.79063166989004
 20
164.5829556261639
 30
0.0
 40
1.0
100
AcDbArc
 50
216.786789298262
 51
315.0
  0
ARC
  5
620
330
BD9
100
AcDbEntity
  8
Easyheater Deckel
100
AcDbCircle
 10
38.79063166989013
 20
164.5829556261639
 30
0.0
 40
1.0
100
AcDbArc
 50
315.0
 51
36.78678929826199
  0
ARC
  5
621
330
BD9
100
AcDbEntity
  8
Easyheater Deckel
100
AcDbCircle
 10
41.61905879463622
 20
161.7545285014178
 30
0.0
 40
1.0
100
AcDbArc
 50
53.21321070173801
 51
135.0
  0
ARC
  5
622
330
BD9
100
AcDbEntity
  8
Easyheater Deckel
100
AcDbCircle
 10
41.61905879463622
 20
161.7545285014178
 30
0.0
 40
1.0
100
AcDbArc
 50
135.0
 51
233.213210701738
  0
ARC
  5
623
330
BD9
100
AcDbEntity
  8
Easyheater Deckel
100
AcDbCircle
 10
38.76790712509543
 20
158.903376831877
 30
0.0
 40
1.0
100
AcDbArc
 50
51.37937020844333
 51
135.0
  0
LINE
  5
625
330
BD9
100
AcDbEntity
  8
Easyheater Deckel
100
AcDbLine
 10
2.0
 20
213.8399309414401
 30
0.0
 11
98.0
 21
213.8399309414401
 31
0.0
  0
LINE
  5
627
330
BD9
100
AcDbEntity
  8
Easyheater Deckel
100
AcDbLine
 10
98.0
 20
-7.0
 30
0.0
 11
2.0
 21
-7.0
 31
0.0
  0
ARC
  5
628
330
BD9
100
AcDbEntity
  8
Easyheater Deckel
100
AcDbCircle
 10
2.0
 20
203.8399309414401
 30
0.0
 40
10.0
100
AcDbArc
 50
90.0
 51
180.0
  0
ARC
  5
629
330
BD9
100
AcDbEntity
  8
Easyheater Deckel
100
AcDbCircle
 10
98.0
 20
203.8399309414401
 30
0.0
 40
10.0
100
AcDbArc
 50
0.0
 51
90.0
  0
ARC
  5
62A
330
BD9
100
AcDbEntity
  8
Easyheater Deckel
100
AcDbCircle
 10
98.0
 20
3.0
 30
0.0
 40
10.0
100
AcDbArc
 50
270.0
 51
0.0
  0
ARC
  5
62B
330
BD9
100
AcDbEntity
  8
Easyheater Deckel
100
AcDbCircle
 10
2.0
 20
3.0
 30
0.0
 40
10.0
100
AcDbArc
 50
180.0
 51
270.0
  0
LINE
  5
636
330
BD9
100
AcDbEntity
  8
Easyheater Deckel
100
AcDbLine
 10
19.3805674353451
 20
36.13055956098218
 30
0.0
 11
80.3805674353451
 21
36.13055956098218
 31
0.0
  0
LINE
  5
637
330
BD9
100
AcDbEntity
  8
Easyheater Deckel
100
AcDbLine
 10
82.3805674353451
 20
34.13055956098218
 30
0.0
 11
82.38056743534509
 21
22.13055956098218
 31
0.0
  0
LINE
  5
638
330
BD9
100
AcDbEntity
  8
Easyheater Deckel
100
AcDbLine
 10
80.38056743534509
 20
20.13055956098218
 30
0.0
 11
19.3805674353451
 21
20.13055956098218
 31
0.0
  0
LINE
  5
639
330
BD9
100
AcDbEntity
  8
Easyheater Deckel
100
AcDbLine
 10
17.3805674353451
 20
22.13055956098218
 30
0.0
 11
17.3805674353451
 21
34.13055956098218
 31
0.0
  0
ARC
  5
63A
330
BD9
100
AcDbEntity
  8
Easyheater Deckel
100
AcDbCircle
 10
19.3805674353451
 20
34.13055956098218
 30
0.0
 40
2.0
100
AcDbArc
 50
90.0
 51
180.0
  0
ARC
  5
63B
330
BD9
100
AcDbEntity
  8
Easyheater Deckel
100
AcDbCircle
 10
80.3805674353451
 20
34.13055956098218
 30
0.0
 40
2.0
100
AcDbArc
 50
0.0
 51
90.0
  0
ARC
  5
63C
330
BD9
100
AcDbEntity
  8
Easyheater Deckel
100
AcDbCircle
 10
80.3805674353451
 20
22.13055956098218
 30
0.0
 40
2.0
100
AcDbArc
 50
270.0
 51
0.0
  0
ARC
  5
63D
330
BD9
100
AcDbEntity
  8
Easyheater Deckel
100
AcDbCircle
 10
19.3805674353451
 20
22.13055956098218
 30
0.0
 40
2.0
100
AcDbArc
 50
180.0
 51
270.0
  0
CIRCLE
  5
6E9
330
BD9
100
AcDbEntity
  8
Easyheater Boden
100
AcDbCircle
 10
67.00280420339601
 20
226.462198954974
 30
0.0
 40
2.2
  0
LINE
  5
6EB
330
BD9
100
AcDbEntity
  8
Easyheater Deckel
100
AcDbLine
 10
-8.0
 20
203.8399309414401
 30
0.0
 11
-8.0
 21
3.000000000000001
 31
0.0
  0
LINE
  5
6EC
330
BD9
100
AcDbEntity
  8
Easyheater Deckel
100
AcDbLine
 10
108.0
 20
3.0
 30
0.0
 11
108.0
 21
203.8399309414401
 31
0.0
  0
LINE
  5
8EB
330
BD9
100
AcDbEntity
  8
Easyheater Boden
100
AcDbLine
 10
-2.496395645867665
 20
253.462198954974
 30
0.0
 11
102.5020040526597
 21
253.462198954974
 31
0.0
  0
LINE
  5
8EC
330
BD9
100
AcDbEntity
  8
Easyheater Boden
100
AcDbLine
 10
102.5020040526597
 20
-46.49153965415672
 30
0.0
 11
-2.496395645867665
 21
-46.49153965415672
 31
0.0
  0
CIRCLE
  5
997
330
BD9
100
AcDbEntity
  8
Easyheater Boden
100
AcDbCircle
 10
3.7
 20
136.6100185340712
 30
0.0
 40
2.65
  0
CIRCLE
  5
998
330
BD9
100
AcDbEntity
  8
Easyheater Boden
100
AcDbCircle
 10
96.30519947247825
 20
136.618134477013
 30
0.0
 40
2.65
  0
CIRCLE
  5
999
330
BD9
100
AcDbEntity
  8
Easyheater Boden
100
AcDbCircle
 10
62.99999999999999
 20
160.4100185340712
 30
0.0
 40
2.65
  0
CIRCLE
  5
99A
330
BD9
100
AcDbEntity
  8
Easyheater Boden
100
AcDbCircle
 10
94.50200405265973
 20
160.4100185340712
 30
0.0
 40
2.65
  0
CIRCLE
  5
99B
330
BD9
100
AcDbEntity
  8
Easyheater Boden
100
AcDbCircle
 10
96.30519947247825
 20
7.01813447701297
 30
0.0
 40
2.65
  0
CIRCLE
  5
99C
330
BD9
100
AcDbEntity
  8
Easyheater Boden
100
AcDbCircle
 10
3.7
 20
7.010018534071193
 30
0.0
 40
2.65
  0
CIRCLE
  5
99D
330
BD9
100
AcDbEntity
  8
Easyheater Deckel
100
AcDbCircle
 10
25.00280420339603
 20
197.9667010349235
 30
0.0
 40
2.65
  0
CIRCLE
  5
99E
330
BD9
100
AcDbEntity
  8
Easyheater Deckel
100
AcDbCircle
 10
75.00280420339604
 20
197.9667010349235
 30
0.0
 40
2.65
  0
CIRCLE
  5
99F
330
BD9
100
AcDbEntity
  8
Easyheater Deckel
100
AcDbCircle
 10
75.00280420339604
 20
147.9667010349235
 30
0.0
 40
2.65
  0
CIRCLE
  5
9A0
330
BD9
100
AcDbEntity
  8
Easyheater Deckel
100
AcDbCircle
 10
25.00280420339603
 20
147.9667010349235
 30
0.0
 40
2.65
  0
CIRCLE
  5
9A1
330
BD9
100
AcDbEntity
  8
Easyheater Deckel
100
AcDbCircle
 10
96.3
 20
136.6119538257239
 30
0.0
 40
2.65
  0
CIRCLE
  5
9A2
330
BD9
100
AcDbEntity
  8
Easyheater Deckel
100
AcDbCircle
 10
96.30519947247825
 20
7.01813447701297
 30
0.0
 40
2.65
  0
CIRCLE
  5
9A3
330
BD9
100
AcDbEntity
  8
Easyheater Deckel
100
AcDbCircle
 10
3.7
 20
7.010018534071193
 30
0.0
 40
2.65
  0
CIRCLE
  5
A4E
330
BD9
100
AcDbEntity
  8
Easyheater Boden
100
AcDbCircle
 10
25.0
 20
226.4663840522593
 30
0.0
 40
8.15
  0
CIRCLE
  5
A4F
330
BD9
100
AcDbEntity
  8
Easyheater Boden
100
AcDbCircle
 10
50.0
 20
226.4663840522593
 30
0.0
 40
8.15
  0
LINE
  5
AFA
330
BD9
100
AcDbEntity
  8
Easyheater Deckel
100
AcDbLine
 10
40.0
 20
65.79783136162104
 30
0.0
 11
40.0
 21
52.49783136162103
 31
0.0
  0
LINE
  5
AFB
330
BD9
100
AcDbEntity
  8
Easyheater Deckel
100
AcDbLine
 10
60.0
 20
52.49783136162103
 30
0.0
 11
60.0
 21
65.79783136162104
 31
0.0
  0
LINE
  5
AFC
330
BD9
100
AcDbEntity
  8
Easyheater Deckel
100
AcDbLine
 10
40.0
 20
65.79783136162104
 30
0.0
 11
60.0
 21
65.79783136162104
 31
0.0
  0
LINE
  5
AFD
330
BD9
100
AcDbEntity
  8
Easyheater Deckel
100
AcDbLine
 10
60.0
 20
52.49783136162103
 30
0.0
 11
40.0
 21
52.49783136162103
 31
0.0
  0
LINE
  5
B01
330
BD9
100
AcDbEntity
  8
Easyheater Boden
100
AcDbLine
 10
52.6
 20
171.8
 30
0.0
 11
52.62276343277382
 21
167.890421356068
 31
0.0
  0
LINE
  5
B02
330
BD9
100
AcDbEntity
  8
Easyheater Boden
100
AcDbLine
 10
47.4
 20
171.8
 30
0.0
 11
47.39922201719983
 21
167.9406161483784
 31
0.0
  0
ARC
  5
B03
330
BD9
100
AcDbEntity
  8
Easyheater Boden
100
AcDbCircle
 10
49.95908864390481
 20
162.5140995075229
 30
0.0
 40
6.000000000000006
100
AcDbArc
 50
115.254795433834
 51
63.64408905550699
  0
ARC
  5
B04
330
BD9
100
AcDbEntity
  8
Easyheater Boden
100
AcDbCircle
 10
50.0
 20
171.8
 30
0.0
 40
2.600000000000001
100
AcDbArc
 50
0.0
 51
180.0
  0
LINE
  5
B07
330
BD9
100
AcDbEntity
  8
Easyheater Boden
100
AcDbLine
 10
52.60000000000002
 20
71.83984773596696
 30
0.0
 11
52.62276343277383
 21
67.93026909203498
 31
0.0
  0
LINE
  5
B09
330
BD9
100
AcDbEntity
  8
Easyheater Boden
100
AcDbLine
 10
47.40000000000001
 20
71.83984773596696
 30
0.0
 11
47.39922201719984
 21
67.98046388434538
 31
0.0
  0
ARC
  5
B0A
330
BD9
100
AcDbEntity
  8
Easyheater Boden
100
AcDbCircle
 10
49.95908864390483
 20
62.55394724348984
 30
0.0
 40
6.000000000000006
100
AcDbArc
 50
115.254795433834
 51
63.64408905550699
  0
ARC
  5
B0B
330
BD9
100
AcDbEntity
  8
Easyheater Boden
100
AcDbCircle
 10
50.00000000000001
 20
71.83984773596696
 30
0.0
 40
2.600000000000001
100
AcDbArc
 50
0.0
 51
180.0
  0
CIRCLE
  5
B0C
330
BD9
100
AcDbEntity
  8
Easyheater Deckel
100
AcDbCircle
 10
96.30519947247825
 20
200.059834261201
 30
0.0
 40
2.65
  0
CIRCLE
  5
B0D
330
BD9
100
AcDbEntity
  8
Easyheater Deckel
100
AcDbCircle
 10
3.7
 20
200.0517183182592
 30
0.0
 40
2.65
  0
CIRCLE
  5
B0E
330
BD9
100
AcDbEntity
  8
Easyheater Boden
100
AcDbCircle
 10
96.30519947247825
 20
200.059834261201
 30
0.0
 40
2.65
  0
CIRCLE
  5
B0F
330
BD9
100
AcDbEntity
  8
Easyheater Boden
100
AcDbCircle
 10
3.7
 20
200.0517183182592
 30
0.0
 40
2.65
  0
CIRCLE
  5
B10
330
BD9
100
AcDbEntity
  8
Easyheater Deckel
100
AcDbCircle
 10
3.7
 20
136.6100185340712
 30
0.0
 40
2.65
  0
ENDSEC
  0
SECTION
  2
OBJECTS
  0
DICTIONARY
  5
BC7
330
0
100
AcDbDictionary
281
     1
  3
ACAD_DETAILVIEWSTYLE
350
C9A
  3
ACAD_GROUP
350
BC8
  3
ACAD_LAYOUT
350
BD4
  3
ACAD_MATERIAL
350
BFD
  3
ACAD_MLEADERSTYLE
350
C99
  3
ACAD_MLINESTYLE
350
BD1
  3
ACAD_PLOTSETTINGS
350
BD3
  3
ACAD_PLOTSTYLENAME
350
BC9
  3
ACAD_SCALELIST
350
C01
  3
ACAD_SECTIONVIEWSTYLE
350
C9B
  3
ACAD_TABLESTYLE
350
C98
  3
ACAD_VISUALSTYLE
350
BE4
  3
AcDbVariableDictionary
350
C66
  3
QCAD_OBJECTS
350
C25
  0
SUN
  5
C23
330
BE3
100
AcDbSun
 90
        1
290
     0
 63
     7
421
 16777215
 40
1.0
291
     1
 91
  2455826
 92
 54000000
292
     0
 70
     2
 71
   256
280
     1
  0
DICTIONARY
  5
C9A
102
{ACAD_REACTORS
330
BC7
102
}
330
BC7
100
AcDbDictionary
281
     1
  0
DICTIONARY
  5
BC8
102
{ACAD_REACTORS
330
BC7
102
}
330
BC7
100
AcDbDictionary
281
     1
  0
DICTIONARY
  5
BD4
102
{ACAD_REACTORS
330
BC7
102
}
330
BC7
100
AcDbDictionary
281
     1
  3
Layout1
350
BD8
  3
Layout2
350
BE0
  3
Model
350
BDC
  0
DICTIONARY
  5
BFD
102
{ACAD_REACTORS
330
BC7
102
}
330
BC7
100
AcDbDictionary
281
     1
  3
ByBlock
350
BFF
  3
ByLayer
350
BFE
  3
Global
350
C00
  0
DICTIONARY
  5
C99
102
{ACAD_REACTORS
330
BC7
102
}
330
BC7
100
AcDbDictionary
281
     1
  0
DICTIONARY
  5
BD1
102
{ACAD_REACTORS
330
BC7
102
}
330
BC7
100
AcDbDictionary
281
     1
  3
Standard
350
BD2
  0
DICTIONARY
  5
BD3
102
{ACAD_REACTORS
330
BC7
102
}
330
BC7
100
AcDbDictionary
281
     1
  0
ACDBDICTIONARYWDFLT
  5
BC9
102
{ACAD_REACTORS
330
BC7
102
}
330
BC7
100
AcDbDictionary
281
     1
  3
Normal
350
BCA
100
AcDbDictionaryWithDefault
340
BCA
  0
DICTIONARY
  5
C01
102
{ACAD_REACTORS
330
BC7
102
}
330
BC7
100
AcDbDictionary
281
     1
  3
A0
350
C02
  3
A1
350
C03
  3
A2
350
C04
  3
A3
350
C05
  3
A4
350
C06
  3
A5
350
C07
  3
A6
350
C08
  3
A7
350
C09
  3
A8
350
C0A
  3
A9
350
C0B
  3
B0
350
C0C
  3
B1
350
C0D
  3
B2
350
C0E
  3
B3
350
C0F
  3
B4
350
C10
  3
B5
350
C11
  3
B6
350
C12
  3
B7
350
C13
  3
B8
350
C14
  3
B9
350
C15
  3
C0
350
C16
  3
C1
350
C17
  3
C2
350
C18
  3
C3
350
C19
  3
C4
350
C1A
  3
C5
350
C1B
  3
C6
350
C1C
  3
C7
350
C1D
  3
C8
350
C1E
  3
C9
350
C1F
  3
D0
350
C20
  3
D1
350
C21
  3
D2
350
C22
  0
DICTIONARY
  5
C9B
102
{ACAD_REACTORS
330
BC7
102
}
330
BC7
100
AcDbDictionary
281
     1
  0
DICTIONARY
  5
C98
102
{ACAD_REACTORS
330
BC7
102
}
330
BC7
100
AcDbDictionary
281
     1
  0
DICTIONARY
  5
BE4
102
{ACAD_REACTORS
330
BC7
102
}
330
BC7
100
AcDbDictionary
281
     1
  3
2dWireframe
350
BE9
  3
Basic
350
BEC
  3
Brighten
350
BF0
  3
ColorChange
350
BF4
  3
Conceptual
350
BEE
  3
Dim
350
BEF
  3
EdgeColorOff
350
BF7
  3
Facepattern
350
BF3
  3
Flat
350
BE5
  3
FlatWithEdges
350
BE6
  3
Gouraud
350
BE7
  3
GouraudWithEdges
350
BE8
  3
Hidden
350
BEB
  3
JitterOff
350
BF5
  3
Linepattern
350
BF2
  3
OverhangOff
350
BF6
  3
Realistic
350
BED
  3
Shaded
350
BFC
  3
Shaded with edges
350
BFB
  3
Shades of Gray
350
BF8
  3
Sketchy
350
BF9
  3
Thicken
350
BF1
  3
Wireframe
350
BEA
  3
X-Ray
350
BFA
  0
DICTIONARY
  5
C66
102
{ACAD_REACTORS
330
BC7
102
}
330
BC7
100
AcDbDictionary
281
     1
  3
CANNOSCALE
350
C67
  0
DICTIONARY
  5
C25
102
{ACAD_REACTORS
330
BC7
102
}
330
BC7
100
AcDbDictionary
281
     1
  3
Grid/DisplayGrid00
350
C26
  3
Grid/DisplayGrid01
350
C27
  3
Grid/DisplayGrid02
350
C28
  3
Grid/DisplayGrid03
350
C29
  3
Grid/GridSpacingX00
350
C2A
  3
Grid/GridSpacingX01
350
C2B
  3
Grid/GridSpacingX02
350
C2C
  3
Grid/GridSpacingX03
350
C2D
  3
Grid/GridSpacingY00
350
C2E
  3
Grid/GridSpacingY01
350
C2F
  3
Grid/GridSpacingY02
350
C30
  3
Grid/GridSpacingY03
350
C31
  3
Grid/IsometricGrid00
350
C32
  3
Grid/IsometricGrid01
350
C33
  3
Grid/IsometricGrid02
350
C34
  3
Grid/IsometricGrid03
350
C35
  3
Grid/IsometricProjection00
350
C36
  3
Grid/IsometricProjection01
350
C37
  3
Grid/IsometricProjection02
350
C38
  3
Grid/IsometricProjection03
350
C39
  3
Grid/MetaGridSpacingX00
350
C3A
  3
Grid/MetaGridSpacingX01
350
C3B
  3
Grid/MetaGridSpacingX02
350
C3C
  3
Grid/MetaGridSpacingX03
350
C3D
  3
Grid/MetaGridSpacingY00
350
C3E
  3
Grid/MetaGridSpacingY01
350
C3F
  3
Grid/MetaGridSpacingY02
350
C40
  3
Grid/MetaGridSpacingY03
350
C41
  3
MultiPageSettings/Columns
350
C42
  3
MultiPageSettings/GlueMarginsBottom
350
C43
  3
MultiPageSettings/GlueMarginsLeft
350
C44
  3
MultiPageSettings/GlueMarginsRight
350
C45
  3
MultiPageSettings/GlueMarginsTop
350
C46
  3
MultiPageSettings/PrintCropMarks
350
C47
  3
MultiPageSettings/Rows
350
C48
  3
PageSettings/OffsetX
350
C49
  3
PageSettings/OffsetY
350
C4A
  3
PageSettings/PageOrientation
350
C4B
  3
PageSettings/PaperHeight
350
C4C
  3
PageSettings/PaperWidth
350
C4D
  3
PageSettings/Scale
350
C4E
  3
PageSettings/ShowPaperBorders
350
C4F
  3
UnitSettings/PaperUnit
350
C50
  0
LAYOUT
  5
BD8
102
{ACAD_REACTORS
330
BD4
102
}
330
BD4
100
AcDbPlotSettings
  1

  2
none_device
  4

  6

 40
0.0
 41
0.0
 42
0.0
 43
0.0
 44
0.0
 45
0.0
 46
0.0
 47
0.0
 48
0.0
 49
0.0
140
0.0
141
0.0
142
1.0
143
1.0
 70
   688
 72
     0
 73
     0
 74
     5
  7

 75
    16
 76
     0
 77
     2
 78
   300
147
1.0
148
0.0
149
0.0
100
AcDbLayout
  1
Layout1
 70
     1
 71
     1
 10
0.0
 20
0.0
 11
12.0
 21
9.0
 12
0.0
 22
0.0
 32
0.0
 14
1.000000000000000E+20
 24
1.000000000000000E+20
 34
1.000000000000000E+20
 15
-1.000000000000000E+20
 25
-1.000000000000000E+20
 35
-1.000000000000000E+20
146
0.0
 13
0.0
 23
0.0
 33
0.0
 16
1.0
 26
0.0
 36
0.0
 17
0.0
 27
1.0
 37
0.0
 76
     0
330
BD5
  0
LAYOUT
  5
BE0
102
{ACAD_REACTORS
330
BD4
102
}
330
BD4
100
AcDbPlotSettings
  1

  2
none_device
  4

  6

 40
0.0
 41
0.0
 42
0.0
 43
0.0
 44
0.0
 45
0.0
 46
0.0
 47
0.0
 48
0.0
 49
0.0
140
0.0
141
0.0
142
1.0
143
1.0
 70
   688
 72
     0
 73
     0
 74
     5
  7

 75
    16
 76
     0
 77
     2
 78
   300
147
1.0
148
0.0
149
0.0
100
AcDbLayout
  1
Layout2
 70
     1
 71
     2
 10
0.0
 20
0.0
 11
0.0
 21
0.0
 12
0.0
 22
0.0
 32
0.0
 14
0.0
 24
0.0
 34
0.0
 15
0.0
 25
0.0
 35
0.0
146
0.0
 13
0.0
 23
0.0
 33
0.0
 16
1.0
 26
0.0
 36
0.0
 17
0.0
 27
1.0
 37
0.0
 76
     0
330
BDD
  0
LAYOUT
  5
BDC
102
{ACAD_REACTORS
330
BD4
102
}
330
BD4
100
AcDbPlotSettings
  1

  2
none_device
  4
Letter_(8.50_x_11.00_Inches)
  6

 40
6.35
 41
6.35
 42
6.35000508
 43
6.35000508
 44
215.9
 45
279.4
 46
0.0
 47
0.0
 48
0.0
 49
0.0
140
0.0
141
0.0
142
1.0
143
1.0
 70
  1712
 72
     0
 73
     0
 74
     0
  7

 75
     0
 76
     0
 77
     2
 78
   300
147
1.0
148
0.0
149
0.0
100
AcDbLayout
  1
Model
 70
     1
 71
     0
 10
0.0
 20
0.0
 11
12.0
 21
9.0
 12
0.0
 22
0.0
 32
0.0
 14
1.000000000000000E+20
 24
1.000000000000000E+20
 34
1.000000000000000E+20
 15
-1.000000000000000E+20
 25
-1.000000000000000E+20
 35
-1.000000000000000E+20
146
0.0
 13
0.0
 23
0.0
 33
0.0
 16
1.0
 26
0.0
 36
0.0
 17
0.0
 27
1.0
 37
0.0
 76
     0
330
BD9
331
BE3
  0
MATERIAL
  5
BFF
102
{ACAD_REACTORS
330
BFD
102
}
330
BFD
100
AcDbMaterial
  1
ByBlock
 72
     1
 94
      127
  0
MATERIAL
  5
BFE
102
{ACAD_REACTORS
330
BFD
102
}
330
BFD
100
AcDbMaterial
  1
ByLayer
 72
     1
 94
      127
  0
MATERIAL
  5
C00
102
{ACAD_REACTORS
330
BFD
102
}
330
BFD
100
AcDbMaterial
  1
Global
 72
     1
 94
      127
  0
MLINESTYLE
  5
BD2
102
{ACAD_REACTORS
330
BD1
102
}
330
BD1
100
AcDbMlineStyle
  2
Standard
 70
     0
  3

 62
   256
 51
90.0
 52
90.0
 71
     2
 49
0.5
 62
   256
  6
BYLAYER
 49
-0.5
 62
   256
  6
BYLAYER
  0
ACDBPLACEHOLDER
  5
BCA
102
{ACAD_REACTORS
330
BC9
102
}
330
BC9
  0
SCALE
  5
C02
102
{ACAD_REACTORS
330
C01
102
}
330
C01
100
AcDbScale
 70
     0
300
1:1
140
1.0
141
1.0
290
     1
  0
SCALE
  5
C03
102
{ACAD_REACTORS
330
C01
102
}
330
C01
100
AcDbScale
 70
     0
300
1:2
140
1.0
141
2.0
290
     0
  0
SCALE
  5
C04
102
{ACAD_REACTORS
330
C01
102
}
330
C01
100
AcDbScale
 70
     0
300
1:4
140
1.0
141
4.0
290
     0
  0
SCALE
  5
C05
102
{ACAD_REACTORS
330
C01
102
}
330
C01
100
AcDbScale
 70
     0
300
1:5
140
1.0
141
5.0
290
     0
  0
SCALE
  5
C06
102
{ACAD_REACTORS
330
C01
102
}
330
C01
100
AcDbScale
 70
     0
300
1:8
140
1.0
141
8.0
290
     0
  0
SCALE
  5
C07
102
{ACAD_REACTORS
330
C01
102
}
330
C01
100
AcDbScale
 70
     0
300
1:10
140
1.0
141
10.0
290
     0
  0
SCALE
  5
C08
102
{ACAD_REACTORS
330
C01
102
}
330
C01
100
AcDbScale
 70
     0
300
1:16
140
1.0
141
16.0
290
     0
  0
SCALE
  5
C09
102
{ACAD_REACTORS
330
C01
102
}
330
C01
100
AcDbScale
 70
     0
300
1:20
140
1.0
141
20.0
290
     0
  0
SCALE
  5
C0A
102
{ACAD_REACTORS
330
C01
102
}
330
C01
100
AcDbScale
 70
     0
300
1:30
140
1.0
141
30.0
290
     0
  0
SCALE
  5
C0B
102
{ACAD_REACTORS
330
C01
102
}
330
C01
100
AcDbScale
 70
     0
300
1:40
140
1.0
141
40.0
290
     0
  0
SCALE
  5
C0C
102
{ACAD_REACTORS
330
C01
102
}
330
C01
100
AcDbScale
 70
     0
300
1:50
140
1.0
141
50.0
290
     0
  0
SCALE
  5
C0D
102
{ACAD_REACTORS
330
C01
102
}
330
C01
100
AcDbScale
 70
     0
300
1:100
140
1.0
141
100.0
290
     0
  0
SCALE
  5
C0E
102
{ACAD_REACTORS
330
C01
102
}
330
C01
100
AcDbScale
 70
     0
300
2:1
140
2.0
141
1.0
290
     0
  0
SCALE
  5
C0F
102
{ACAD_REACTORS
330
C01
102
}
330
C01
100
AcDbScale
 70
     0
300
4:1
140
4.0
141
1.0
290
     0
  0
SCALE
  5
C10
102
{ACAD_REACTORS
330
C01
102
}
330
C01
100
AcDbScale
 70
     0
300
8:1
140
8.0
141
1.0
290
     0
  0
SCALE
  5
C11
102
{ACAD_REACTORS
330
C01
102
}
330
C01
100
AcDbScale
 70
     0
300
10:1
140
10.0
141
1.0
290
     0
  0
SCALE
  5
C12
102
{ACAD_REACTORS
330
C01
102
}
330
C01
100
AcDbScale
 70
     0
300
100:1
140
100.0
141
1.0
290
     0
  0
SCALE
  5
C13
102
{ACAD_REACTORS
330
C01
102
}
330
C01
100
AcDbScale
 70
     0
300
1/128" = 1'-0"
140
0.0078125
141
12.0
290
     0
  0
SCALE
  5
C14
102
{ACAD_REACTORS
330
C01
102
}
330
C01
100
AcDbScale
 70
     0
300
1/64" = 1'-0"
140
0.015625
141
12.0
290
     0
  0
SCALE
  5
C15
102
{ACAD_REACTORS
330
C01
102
}
330
C01
100
AcDbScale
 70
     0
300
1/32" = 1'-0"
140
0.03125
141
12.0
290
     0
  0
SCALE
  5
C16
102
{ACAD_REACTORS
330
C01
102
}
330
C01
100
AcDbScale
 70
     0
300
1/16" = 1'-0"
140
0.0625
141
12.0
290
     0
  0
SCALE
  5
C17
102
{ACAD_REACTORS
330
C01
102
}
330
C01
100
AcDbScale
 70
     0
300
3/32" = 1'-0"
140
0.09375
141
12.0
290
     0
  0
SCALE
  5
C18
102
{ACAD_REACTORS
330
C01
102
}
330
C01
100
AcDbScale
 70
     0
300
1/8" = 1'-0"
140
0.125
141
12.0
290
     0
  0
SCALE
  5
C19
102
{ACAD_REACTORS
330
C01
102
}
330
C01
100
AcDbScale
 70
     0
300
3/16" = 1'-0"
140
0.1875
141
12.0
290
     0
  0
SCALE
  5
C1A
102
{ACAD_REACTORS
330
C01
102
}
330
C01
100
AcDbScale
 70
     0
300
1/4" = 1'-0"
140
0.25
141
12.0
290
     0
  0
SCALE
  5
C1B
102
{ACAD_REACTORS
330
C01
102
}
330
C01
100
AcDbScale
 70
     0
300
3/8" = 1'-0"
140
0.375
141
12.0
290
     0
  0
SCALE
  5
C1C
102
{ACAD_REACTORS
330
C01
102
}
330
C01
100
AcDbScale
 70
     0
300
1/2" = 1'-0"
140
0.5
141
12.0
290
     0
  0
SCALE
  5
C1D
102
{ACAD_REACTORS
330
C01
102
}
330
C01
100
AcDbScale
 70
     0
300
3/4" = 1'-0"
140
0.75
141
12.0
290
     0
  0
SCALE
  5
C1E
102
{ACAD_REACTORS
330
C01
102
}
330
C01
100
AcDbScale
 70
     0
300
1" = 1'-0"
140
1.0
141
12.0
290
     0
  0
SCALE
  5
C1F
102
{ACAD_REACTORS
330
C01
102
}
330
C01
100
AcDbScale
 70
     0
300
1-1/2" = 1'-0"
140
1.5
141
12.0
290
     0
  0
SCALE
  5
C20
102
{ACAD_REACTORS
330
C01
102
}
330
C01
100
AcDbScale
 70
     0
300
3" = 1'-0"
140
3.0
141
12.0
290
     0
  0
SCALE
  5
C21
102
{ACAD_REACTORS
330
C01
102
}
330
C01
100
AcDbScale
 70
     0
300
6" = 1'-0"
140
6.0
141
12.0
290
     0
  0
SCALE
  5
C22
102
{ACAD_REACTORS
330
C01
102
}
330
C01
100
AcDbScale
 70
     0
300
1'-0" = 1'-0"
140
12.0
141
12.0
290
     0
  0
VISUALSTYLE
  5
BE9
102
{ACAD_REACTORS
330
BE4
102
}
102
{ACAD_XDICTIONARY
360
C70
102
}
330
BE4
100
AcDbVisualStyle
  2
2dWireframe
 70
     4
 71
     0
 72
     2
 73
     0
 90
        0
 40
0.6
 41
30.0
 62
     5
 63
     7
421
 16777215
 74
     1
 91
        4
 64
     7
 65
   257
 75
     1
175
     1
 42
1.0
 92
        0
 66
   257
 43
1.0
 76
     1
 77
     6
 78
     2
 67
     7
 79
     5
170
     0
171
     0
290
     0
174
     0
 93
        1
 44
0.0
173
     0
291
     0
 45
0.0
  0
VISUALSTYLE
  5
BEC
102
{ACAD_REACTORS
330
BE4
102
}
102
{ACAD_XDICTIONARY
360
C76
102
}
330
BE4
100
AcDbVisualStyle
  2
Basic
 70
     7
 71
     1
 72
     0
 73
     1
 90
        0
 40
0.6
 41
30.0
 62
     5
 63
     7
421
 16777215
 74
     0
 91
        4
 64
     7
 65
   257
 75
     1
175
     1
 42
1.0
 92
        8
 66
     7
 43
1.0
 76
     1
 77
     6
 78
     2
 67
     7
 79
     5
170
     0
171
     0
290
     0
174
     0
 93
        1
 44
0.0
173
     0
291
     1
 45
0.0
  0
VISUALSTYLE
  5
BF0
102
{ACAD_REACTORS
330
BE4
102
}
102
{ACAD_XDICTIONARY
360
C7E
102
}
330
BE4
100
AcDbVisualStyle
  2
Brighten
 70
    12
 71
     2
 72
     2
 73
     0
 90
        0
 40
0.6
 41
30.0
 62
     5
 63
     7
421
 16777215
 74
     1
 91
        4
 64
     7
 65
   257
 75
     1
175
     1
 42
1.0
 92
        8
 66
     7
 43
1.0
 76
     1
 77
     6
 78
     2
 67
     7
 79
     5
170
     0
171
     0
290
     0
174
     0
 93
        1
 44
50.0
173
     0
291
     1
 45
0.0
  0
VISUALSTYLE
  5
BF4
102
{ACAD_REACTORS
330
BE4
102
}
102
{ACAD_XDICTIONARY
360
C86
102
}
330
BE4
100
AcDbVisualStyle
  2
ColorChange
 70
    16
 71
     2
 72
     2
 73
     3
 90
        0
 40
0.6
 41
30.0
 62
     5
 63
     8
421
  8421504
 74
     1
 91
        4
 64
     7
 65
   257
 75
     1
175
     1
 42
1.0
 92
        8
 66
     8
424
  8421504
 43
1.0
 76
     1
 77
     6
 78
     2
 67
     7
 79
     5
170
     0
171
     0
290
     0
174
     0
 93
        1
 44
0.0
173
     0
291
     1
 45
0.0
  0
VISUALSTYLE
  5
BEE
102
{ACAD_REACTORS
330
BE4
102
}
102
{ACAD_XDICTIONARY
360
C7A
102
}
330
BE4
100
AcDbVisualStyle
  2
Conceptual
 70
     9
 71
     3
 72
     2
 73
     0
 90
        0
 40
0.6
 41
30.0
 62
     5
 63
     7
421
 16777215
 74
     2
 91
        2
 64
     7
 65
   257
 75
     1
175
     1
 42
179.0
 92
        8
 66
     7
 43
1.0
 76
     1
 77
     6
 78
     2
 67
     7
 79
     3
170
     0
171
     0
290
     0
174
     0
 93
        1
 44
0.0
173
     0
291
     0
 45
0.0
  0
VISUALSTYLE
  5
BEF
102
{ACAD_REACTORS
330
BE4
102
}
102
{ACAD_XDICTIONARY
360
C7C
102
}
330
BE4
100
AcDbVisualStyle
  2
Dim
 70
    11
 71
     2
 72
     2
 73
     0
 90
        0
 40
0.6
 41
30.0
 62
     5
 63
     7
421
 16777215
 74
     1
 91
        4
 64
     7
 65
   257
 75
     1
175
     1
 42
1.0
 92
        8
 66
     7
 43
1.0
 76
     1
 77
     6
 78
     2
 67
     7
 79
     5
170
     0
171
     0
290
     0
174
     0
 93
        1
 44
-50.0
173
     0
291
     1
 45
0.0
  0
VISUALSTYLE
  5
BF7
102
{ACAD_REACTORS
330
BE4
102
}
102
{ACAD_XDICTIONARY
360
C8C
102
}
330
BE4
100
AcDbVisualStyle
  2
EdgeColorOff
 70
    22
 71
     2
 72
     2
 73
     0
 90
        0
 40
0.6
 41
30.0
 62
     5
 63
     7
421
 16777215
 74
     1
 91
        4
 64
     7
 65
   257
 75
     1
175
     1
 42
1.0
 92
        8
 66
     7
 43
1.0
 76
     1
 77
     6
 78
     2
 67
     7
 79
     5
170
     0
171
     0
290
     0
174
     0
 93
        1
 44
0.0
173
     0
291
     1
 45
0.0
  0
VISUALSTYLE
  5
BF3
102
{ACAD_REACTORS
330
BE4
102
}
102
{ACAD_XDICTIONARY
360
C84
102
}
330
BE4
100
AcDbVisualStyle
  2
Facepattern
 70
    15
 71
     2
 72
     2
 73
     0
 90
        0
 40
0.6
 41
30.0
 62
     5
 63
     7
421
 16777215
 74
     1
 91
        4
 64
     7
 65
   257
 75
     1
175
     1
 42
1.0
 92
        8
 66
     7
 43
1.0
 76
     1
 77
     6
 78
     2
 67
     7
 79
     5
170
     0
171
     0
290
     0
174
     0
 93
        1
 44
0.0
173
     0
291
     1
 45
0.0
  0
VISUALSTYLE
  5
BE5
102
{ACAD_REACTORS
330
BE4
102
}
102
{ACAD_XDICTIONARY
360
C68
102
}
330
BE4
100
AcDbVisualStyle
  2
Flat
 70
     0
 71
     2
 72
     1
 73
     1
 90
        2
 40
0.6
 41
30.0
 62
     5
 63
     7
421
 16777215
 74
     0
 91
        0
 64
     7
 65
   257
 75
     1
175
     1
 42
1.0
 92
        8
 66
     7
 43
1.0
 76
     1
 77
     6
 78
     2
 67
     7
 79
     5
170
     0
171
     0
290
     0
174
     0
 93
       13
 44
0.0
173
     0
291
     1
 45
0.0
  0
VISUALSTYLE
  5
BE6
102
{ACAD_REACTORS
330
BE4
102
}
102
{ACAD_XDICTIONARY
360
C6A
102
}
330
BE4
100
AcDbVisualStyle
  2
FlatWithEdges
 70
     1
 71
     2
 72
     1
 73
     1
 90
        2
 40
0.6
 41
30.0
 62
     5
 63
     7
421
 16777215
 74
     1
 91
        0
 64
     7
 65
   257
 75
     1
175
     1
 42
1.0
 92
        0
 66
   257
 43
1.0
 76
     1
 77
     6
 78
     2
 67
     7
 79
     5
170
     0
171
     0
290
     0
174
     0
 93
       13
 44
0.0
173
     0
291
     1
 45
0.0
  0
VISUALSTYLE
  5
BE7
102
{ACAD_REACTORS
330
BE4
102
}
102
{ACAD_XDICTIONARY
360
C6C
102
}
330
BE4
100
AcDbVisualStyle
  2
Gouraud
 70
     2
 71
     2
 72
     2
 73
     1
 90
        2
 40
0.6
 41
30.0
 62
     5
 63
     7
421
 16777215
 74
     0
 91
        0
 64
     7
 65
   257
 75
     1
175
     1
 42
1.0
 92
        0
 66
     7
 43
1.0
 76
     1
 77
     6
 78
     2
 67
     7
 79
     5
170
     0
171
     0
290
     0
174
     0
 93
       13
 44
0.0
173
     0
291
     1
 45
0.0
  0
VISUALSTYLE
  5
BE8
102
{ACAD_REACTORS
330
BE4
102
}
102
{ACAD_XDICTIONARY
360
C6E
102
}
330
BE4
100
AcDbVisualStyle
  2
GouraudWithEdges
 70
     3
 71
     2
 72
     2
 73
     1
 90
        2
 40
0.6
 41
30.0
 62
     5
 63
     7
421
 16777215
 74
     1
 91
        0
 64
     7
 65
   257
 75
     1
175
     1
 42
1.0
 92
        0
 66
   257
 43
1.0
 76
     1
 77
     6
 78
     2
 67
     7
 79
     5
170
     0
171
     0
290
     0
174
     0
 93
       13
 44
0.0
173
     0
291
     1
 45
0.0
  0
VISUALSTYLE
  5
BEB
102
{ACAD_REACTORS
330
BE4
102
}
102
{ACAD_XDICTIONARY
360
C74
102
}
330
BE4
100
AcDbVisualStyle
  2
Hidden
 70
     6
 71
     1
 72
     2
 73
     2
 90
        0
 40
0.6
 41
30.0
 62
     5
 63
     7
421
 16777215
 74
     2
 91
        2
 64
     7
 65
   257
 75
     2
175
     1
 42
40.0
 92
        0
 66
   257
 43
1.0
 76
     1
 77
     6
 78
     2
 67
     7
 79
     3
170
     0
171
     0
290
     0
174
     0
 93
        1
 44
0.0
173
     0
291
     0
 45
0.0
  0
VISUALSTYLE
  5
BF5
102
{ACAD_REACTORS
330
BE4
102
}
102
{ACAD_XDICTIONARY
360
C88
102
}
330
BE4
100
AcDbVisualStyle
  2
JitterOff
 70
    20
 71
     2
 72
     2
 73
     0
 90
        0
 40
0.6
 41
30.0
 62
     5
 63
     7
421
 16777215
 74
     1
 91
        4
 64
     7
 65
   257
 75
     1
175
     1
 42
1.0
 92
       10
 66
     7
 43
1.0
 76
     1
 77
     6
 78
     2
 67
     7
 79
     5
170
     0
171
     0
290
     0
174
     0
 93
        1
 44
0.0
173
     0
291
     1
 45
0.0
  0
VISUALSTYLE
  5
BF2
102
{ACAD_REACTORS
330
BE4
102
}
102
{ACAD_XDICTIONARY
360
C82
102
}
330
BE4
100
AcDbVisualStyle
  2
Linepattern
 70
    14
 71
     2
 72
     2
 73
     0
 90
        0
 40
0.6
 41
30.0
 62
     5
 63
     7
421
 16777215
 74
     1
 91
        4
 64
     7
 65
   257
 75
     7
175
     7
 42
1.0
 92
        8
 66
     7
 43
1.0
 76
     1
 77
     6
 78
     2
 67
     7
 79
     5
170
     0
171
     0
290
     0
174
     0
 93
        1
 44
0.0
173
     0
291
     1
 45
0.0
  0
VISUALSTYLE
  5
BF6
102
{ACAD_REACTORS
330
BE4
102
}
102
{ACAD_XDICTIONARY
360
C8A
102
}
330
BE4
100
AcDbVisualStyle
  2
OverhangOff
 70
    21
 71
     2
 72
     2
 73
     0
 90
        0
 40
0.6
 41
30.0
 62
     5
 63
     7
421
 16777215
 74
     1
 91
        4
 64
     7
 65
   257
 75
     1
175
     1
 42
1.0
 92
        9
 66
     7
 43
1.0
 76
     1
 77
     6
 78
     2
 67
     7
 79
     5
170
     0
171
     0
290
     0
174
     0
 93
        1
 44
0.0
173
     0
291
     1
 45
0.0
  0
VISUALSTYLE
  5
BED
102
{ACAD_REACTORS
330
BE4
102
}
102
{ACAD_XDICTIONARY
360
C78
102
}
330
BE4
100
AcDbVisualStyle
  2
Realistic
 70
     8
 71
     2
 72
     3
 73
     0
 90
        2
 40
0.6
 41
30.0
 62
     5
 63
     7
421
 16777215
 74
     0
 91
        0
 64
     7
 65
   257
 75
     1
175
     1
 42
1.0
 92
        8
 66
   257
 43
1.0
 76
     1
 77
     6
 78
     2
 67
     7
 79
     3
170
     0
171
     0
290
     0
174
     0
 93
       13
 44
0.0
173
     0
291
     0
 45
0.0
  0
VISUALSTYLE
  5
BFC
102
{ACAD_REACTORS
330
BE4
102
}
102
{ACAD_XDICTIONARY
360
C96
102
}
330
BE4
100
AcDbVisualStyle
  2
Shaded
 70
    27
 71
     2
 72
     2
 73
     1
 90
        2
 40
0.6
 41
30.0
 62
     5
 63
     7
421
 16777215
 74
     0
 91
        4
 64
     7
 65
   257
 75
     1
175
     1
 42
1.0
 92
        8
 66
   257
 43
1.0
 76
     1
 77
     6
 78
     2
 67
     8
425
  7895160
 79
     3
170
     0
171
     0
290
     0
174
     0
 93
        5
 44
0.0
173
     0
291
     0
 45
0.0
  0
VISUALSTYLE
  5
BFB
102
{ACAD_REACTORS
330
BE4
102
}
102
{ACAD_XDICTIONARY
360
C94
102
}
330
BE4
100
AcDbVisualStyle
  2
Shaded with edges
 70
    26
 71
     2
 72
     2
 73
     1
 90
        2
 40
0.6
 41
30.0
 62
     5
 63
     7
421
 16777215
 74
     1
 91
       10
 64
     7
 65
   257
 75
     2
175
     1
 42
1.0
 92
        8
 66
   257
 43
1.0
 76
     1
 77
     6
 78
     2
 67
     7
 79
     3
170
     0
171
     0
290
     0
174
     0
 93
        5
 44
0.0
173
     0
291
     0
 45
0.0
  0
VISUALSTYLE
  5
BF8
102
{ACAD_REACTORS
330
BE4
102
}
102
{ACAD_XDICTIONARY
360
C8E
102
}
330
BE4
100
AcDbVisualStyle
  2
Shades of Gray
 70
    23
 71
     2
 72
     2
 73
     3
 90
        0
 40
0.6
 41
30.0
 62
     5
 63
     7
421
 16777215
 74
     2
 91
        2
 64
     7
 65
     7
 75
     1
175
     1
 42
40.0
 92
        8
 66
     7
 43
1.0
 76
     1
 77
     6
 78
     2
 67
     7
 79
     3
170
     0
171
     0
290
     0
174
     0
 93
        1
 44
0.0
173
     0
291
     0
 45
0.0
  0
VISUALSTYLE
  5
BF9
102
{ACAD_REACTORS
330
BE4
102
}
102
{ACAD_XDICTIONARY
360
C90
102
}
330
BE4
100
AcDbVisualStyle
  2
Sketchy
 70
    24
 71
     1
 72
     2
 73
     2
 90
        0
 40
0.6
 41
30.0
 62
     5
 63
     7
421
 16777215
 74
     2
 91
        2
 64
     7
 65
     7
 75
     1
175
     1
 42
40.0
 92
       11
 66
     7
 43
1.0
 76
     1
 77
     6
 78
     2
 67
     7
 79
     6
170
     0
171
     0
290
     0
174
     0
 93
        1
 44
0.0
173
     0
291
     0
 45
0.0
  0
VISUALSTYLE
  5
BF1
102
{ACAD_REACTORS
330
BE4
102
}
102
{ACAD_XDICTIONARY
360
C80
102
}
330
BE4
100
AcDbVisualStyle
  2
Thicken
 70
    13
 71
     2
 72
     2
 73
     0
 90
        0
 40
0.6
 41
30.0
 62
     5
 63
     7
421
 16777215
 74
     1
 91
        4
 64
     7
 65
   257
 75
     1
175
     1
 42
1.0
 92
       12
 66
     7
 43
1.0
 76
     1
 77
     6
 78
     2
 67
     7
 79
     5
170
     0
171
     0
290
     0
174
     0
 93
        1
 44
0.0
173
     0
291
     1
 45
0.0
  0
VISUALSTYLE
  5
BEA
102
{ACAD_REACTORS
330
BE4
102
}
102
{ACAD_XDICTIONARY
360
C72
102
}
330
BE4
100
AcDbVisualStyle
  2
Wireframe
 70
     5
 71
     0
 72
     2
 73
     0
 90
        0
 40
0.6
 41
30.0
 62
     5
 63
     7
421
 16777215
 74
     1
 91
        4
 64
     7
 65
   257
 75
     1
175
     1
 42
1.0
 92
        0
 66
   257
 43
1.0
 76
     1
 77
     6
 78
     2
 67
     7
 79
     3
170
     0
171
     0
290
     0
174
     0
 93
        1
 44
0.0
173
     0
291
     0
 45
0.0
  0
VISUALSTYLE
  5
BFA
102
{ACAD_REACTORS
330
BE4
102
}
102
{ACAD_XDICTIONARY
360
C92
102
}
330
BE4
100
AcDbVisualStyle
  2
X-Ray
 70
    25
 71
     2
 72
     2
 73
     1
 90
        1
 40
0.5
 41
30.0
 62
     5
 63
     7
421
 16777215
 74
     1
 91
        0
 64
     7
 65
   257
 75
     1
175
     1
 42
1.0
 92
        8
 66
     7
 43
1.0
 76
     1
 77
     6
 78
     2
 67
     7
 79
     3
170
     0
171
     0
290
     0
174
     0
 93
       13
 44
0.0
173
     0
291
     0
 45
0.0
  0
DICTIONARYVAR
  5
C67
102
{ACAD_REACTORS
330
C66
102
}
330
C66
100
DictionaryVariables
280
     0
  1
1:1
  0
XRECORD
  5
C26
102
{ACAD_REACTORS
330
C25
102
}
330
C25
100
AcDbXrecord
280
     1
290
     1
  0
XRECORD
  5
C27
102
{ACAD_REACTORS
330
C25
102
}
330
C25
100
AcDbXrecord
280
     1
290
     1
  0
XRECORD
  5
C28
102
{ACAD_REACTORS
330
C25
102
}
330
C25
100
AcDbXrecord
280
     1
290
     1
  0
XRECORD
  5
C29
102
{ACAD_REACTORS
330
C25
102
}
330
C25
100
AcDbXrecord
280
     1
290
     1
  0
XRECORD
  5
C2A
102
{ACAD_REACTORS
330
C25
102
}
330
C25
100
AcDbXrecord
280
     1
1000
auto
  0
XRECORD
  5
C2B
102
{ACAD_REACTORS
330
C25
102
}
330
C25
100
AcDbXrecord
280
     1
1000
auto
  0
XRECORD
  5
C2C
102
{ACAD_REACTORS
330
C25
102
}
330
C25
100
AcDbXrecord
280
     1
1000
auto
  0
XRECORD
  5
C2D
102
{ACAD_REACTORS
330
C25
102
}
330
C25
100
AcDbXrecord
280
     1
1000
auto
  0
XRECORD
  5
C2E
102
{ACAD_REACTORS
330
C25
102
}
330
C25
100
AcDbXrecord
280
     1
1000
auto
  0
XRECORD
  5
C2F
102
{ACAD_REACTORS
330
C25
102
}
330
C25
100
AcDbXrecord
280
     1
1000
auto
  0
XRECORD
  5
C30
102
{ACAD_REACTORS
330
C25
102
}
330
C25
100
AcDbXrecord
280
     1
1000
auto
  0
XRECORD
  5
C31
102
{ACAD_REACTORS
330
C25
102
}
330
C25
100
AcDbXrecord
280
     1
1000
auto
  0
XRECORD
  5
C32
102
{ACAD_REACTORS
330
C25
102
}
330
C25
100
AcDbXrecord
280
     1
290
     0
  0
XRECORD
  5
C33
102
{ACAD_REACTORS
330
C25
102
}
330
C25
100
AcDbXrecord
280
     1
290
     0
  0
XRECORD
  5
C34
102
{ACAD_REACTORS
330
C25
102
}
330
C25
100
AcDbXrecord
280
     1
290
     0
  0
XRECORD
  5
C35
102
{ACAD_REACTORS
330
C25
102
}
330
C25
100
AcDbXrecord
280
     1
290
     0
  0
XRECORD
  5
C36
102
{ACAD_REACTORS
330
C25
102
}
330
C25
100
AcDbXrecord
280
     1
 90
        0
  0
XRECORD
  5
C37
102
{ACAD_REACTORS
330
C25
102
}
330
C25
100
AcDbXrecord
280
     1
 90
        0
  0
XRECORD
  5
C38
102
{ACAD_REACTORS
330
C25
102
}
330
C25
100
AcDbXrecord
280
     1
 90
        0
  0
XRECORD
  5
C39
102
{ACAD_REACTORS
330
C25
102
}
330
C25
100
AcDbXrecord
280
     1
 90
        0
  0
XRECORD
  5
C3A
102
{ACAD_REACTORS
330
C25
102
}
330
C25
100
AcDbXrecord
280
     1
1000
auto
  0
XRECORD
  5
C3B
102
{ACAD_REACTORS
330
C25
102
}
330
C25
100
AcDbXrecord
280
     1
1000
auto
  0
XRECORD
  5
C3C
102
{ACAD_REACTORS
330
C25
102
}
330
C25
100
AcDbXrecord
280
     1
1000
auto
  0
XRECORD
  5
C3D
102
{ACAD_REACTORS
330
C25
102
}
330
C25
100
AcDbXrecord
280
     1
1000
auto
  0
XRECORD
  5
C3E
102
{ACAD_REACTORS
330
C25
102
}
330
C25
100
AcDbXrecord
280
     1
1000
auto
  0
XRECORD
  5
C3F
102
{ACAD_REACTORS
330
C25
102
}
330
C25
100
AcDbXrecord
280
     1
1000
auto
  0
XRECORD
  5
C40
102
{ACAD_REACTORS
330
C25
102
}
330
C25
100
AcDbXrecord
280
     1
1000
auto
  0
XRECORD
  5
C41
102
{ACAD_REACTORS
330
C25
102
}
330
C25
100
AcDbXrecord
280
     1
1000
auto
  0
XRECORD
  5
C42
102
{ACAD_REACTORS
330
C25
102
}
330
C25
100
AcDbXrecord
280
     1
 90
        1
  0
XRECORD
  5
C43
102
{ACAD_REACTORS
330
C25
102
}
330
C25
100
AcDbXrecord
280
     1
 40
10.0
  0
XRECORD
  5
C44
102
{ACAD_REACTORS
330
C25
102
}
330
C25
100
AcDbXrecord
280
     1
 40
10.0
  0
XRECORD
  5
C45
102
{ACAD_REACTORS
330
C25
102
}
330
C25
100
AcDbXrecord
280
     1
 40
10.0
  0
XRECORD
  5
C46
102
{ACAD_REACTORS
330
C25
102
}
330
C25
100
AcDbXrecord
280
     1
 40
10.0
  0
XRECORD
  5
C47
102
{ACAD_REACTORS
330
C25
102
}
330
C25
100
AcDbXrecord
280
     1
290
     0
  0
XRECORD
  5
C48
102
{ACAD_REACTORS
330
C25
102
}
330
C25
100
AcDbXrecord
280
     1
 90
        1
  0
XRECORD
  5
C49
102
{ACAD_REACTORS
330
C25
102
}
330
C25
100
AcDbXrecord
280
     1
 40
0.0
  0
XRECORD
  5
C4A
102
{ACAD_REACTORS
330
C25
102
}
330
C25
100
AcDbXrecord
280
     1
 40
0.0
  0
XRECORD
  5
C4B
102
{ACAD_REACTORS
330
C25
102
}
330
C25
100
AcDbXrecord
280
     1
1000
Portrait
  0
XRECORD
  5
C4C
102
{ACAD_REACTORS
330
C25
102
}
330
C25
100
AcDbXrecord
280
     1
 40
297.0
  0
XRECORD
  5
C4D
102
{ACAD_REACTORS
330
C25
102
}
330
C25
100
AcDbXrecord
280
     1
 40
210.0
  0
XRECORD
  5
C4E
102
{ACAD_REACTORS
330
C25
102
}
330
C25
100
AcDbXrecord
280
     1
1000
1:1
  0
XRECORD
  5
C4F
102
{ACAD_REACTORS
330
C25
102
}
330
C25
100
AcDbXrecord
280
     1
290
     1
  0
XRECORD
  5
C50
102
{ACAD_REACTORS
330
C25
102
}
330
C25
100
AcDbXrecord
280
     1
 90
        4
  0
DICTIONARY
  5
C70
330
BE9
100
AcDbDictionary
280
     1
281
     1
  3
ACAD_XREC_ROUNDTRIP
360
C71
  0
DICTIONARY
  5
C76
330
BEC
100
AcDbDictionary
280
     1
281
     1
  3
ACAD_XREC_ROUNDTRIP
360
C77
  0
DICTIONARY
  5
C7E
330
BF0
100
AcDbDictionary
280
     1
281
     1
  3
ACAD_XREC_ROUNDTRIP
360
C7F
  0
DICTIONARY
  5
C86
330
BF4
100
AcDbDictionary
280
     1
281
     1
  3
ACAD_XREC_ROUNDTRIP
360
C87
  0
DICTIONARY
  5
C7A
330
BEE
100
AcDbDictionary
280
     1
281
     1
  3
ACAD_XREC_ROUNDTRIP
360
C7B
  0
DICTIONARY
  5
C7C
330
BEF
100
AcDbDictionary
280
     1
281
     1
  3
ACAD_XREC_ROUNDTRIP
360
C7D
  0
DICTIONARY
  5
C8C
330
BF7
100
AcDbDictionary
280
     1
281
     1
  3
ACAD_XREC_ROUNDTRIP
360
C8D
  0
DICTIONARY
  5
C84
330
BF3
100
AcDbDictionary
280
     1
281
     1
  3
ACAD_XREC_ROUNDTRIP
360
C85
  0
DICTIONARY
  5
C68
330
BE5
100
AcDbDictionary
280
     1
281
     1
  3
ACAD_XREC_ROUNDTRIP
360
C69
  0
DICTIONARY
  5
C6A
330
BE6
100
AcDbDictionary
280
     1
281
     1
  3
ACAD_XREC_ROUNDTRIP
360
C6B
  0
DICTIONARY
  5
C6C
330
BE7
100
AcDbDictionary
280
     1
281
     1
  3
ACAD_XREC_ROUNDTRIP
360
C6D
  0
DICTIONARY
  5
C6E
330
BE8
100
AcDbDictionary
280
     1
281
     1
  3
ACAD_XREC_ROUNDTRIP
360
C6F
  0
DICTIONARY
  5
C74
330
BEB
100
AcDbDictionary
280
     1
281
     1
  3
ACAD_XREC_ROUNDTRIP
360
C75
  0
DICTIONARY
  5
C88
330
BF5
100
AcDbDictionary
280
     1
281
     1
  3
ACAD_XREC_ROUNDTRIP
360
C89
  0
DICTIONARY
  5
C82
330
BF2
100
AcDbDictionary
280
     1
281
     1
  3
ACAD_XREC_ROUNDTRIP
360
C83
  0
DICTIONARY
  5
C8A
330
BF6
100
AcDbDictionary
280
     1
281
     1
  3
ACAD_XREC_ROUNDTRIP
360
C8B
  0
DICTIONARY
  5
C78
330
BED
100
AcDbDictionary
280
     1
281
     1
  3
ACAD_XREC_ROUNDTRIP
360
C79
  0
DICTIONARY
  5
C96
330
BFC
100
AcDbDictionary
280
     1
281
     1
  3
ACAD_XREC_ROUNDTRIP
360
C97
  0
DICTIONARY
  5
C94
330
BFB
100
AcDbDictionary
280
     1
281
     1
  3
ACAD_XREC_ROUNDTRIP
360
C95
  0
DICTIONARY
  5
C8E
330
BF8
100
AcDbDictionary
280
     1
281
     1
  3
ACAD_XREC_ROUNDTRIP
360
C8F
  0
DICTIONARY
  5
C90
330
BF9
100
AcDbDictionary
280
     1
281
     1
  3
ACAD_XREC_ROUNDTRIP
360
C91
  0
DICTIONARY
  5
C80
330
BF1
100
AcDbDictionary
280
     1
281
     1
  3
ACAD_XREC_ROUNDTRIP
360
C81
  0
DICTIONARY
  5
C72
330
BEA
100
AcDbDictionary
280
     1
281
     1
  3
ACAD_XREC_ROUNDTRIP
360
C73
  0
DICTIONARY
  5
C92
330
BFA
100
AcDbDictionary
280
     1
281
     1
  3
ACAD_XREC_ROUNDTRIP
360
C93
  0
XRECORD
  5
C71
102
{ACAD_REACTORS
330
C70
102
}
330
C70
100
AcDbXrecord
280
     1
102
RTVSPropertyOp0
 70
     1
102
RTVSPropertyOp1
 70
     1
102
RTVSPropertyOp2
 70
     1
102
RTVSPropertyOp3
 70
     1
102
RTVSPropertyOp4
 70
     1
102
RTVSPropertyOp5
 70
     1
102
RTVSPropertyOp6
 70
     1
102
RTVSPropertyOp7
 70
     1
102
RTVSPropertyOp8
 70
     1
102
RTVSPropertyOp9
 70
     1
102
RTVSPropertyOp10
 70
     1
102
RTVSPropertyOp11
 70
     1
102
RTVSPropertyOp12
 70
     1
102
RTVSPropertyOp13
 70
     1
102
RTVSPropertyOp14
 70
     1
102
RTVSPropertyOp15
 70
     1
102
RTVSPropertyOp16
 70
     1
102
RTVSPropertyOp17
 70
     1
102
RTVSPropertyOp18
 70
     1
102
RTVSPropertyOp19
 70
     1
102
RTVSPropertyOp20
 70
     1
102
RTVSPropertyOp21
 70
     1
102
RTVSPropertyOp22
 70
     1
102
RTVSPropertyOp23
 70
     1
102
RTVSPropertyOp24
 70
     1
102
RTVSPropertyOp25
 70
     1
102
RTVSPropertyOp26
 70
     1
102
RTVSPropertyOp27
 70
     1
102
RTVSPropertyOp28
 70
     1
102
RTVSPropertyOp29
 70
     1
102
RTVSPropertyOp30
 70
     1
102
RTVSPropertyOp31
 70
     1
102
RTVSPropertyOp32
 70
     1
102
RTVSPropertyOp33
 70
     1
102
RTVSPropertyOp34
 70
     1
102
RTVSPropertyOp35
 70
     1
102
RTVSPropertyOp36
 70
     1
102
RTVSPropertyOp37
 70
     1
102
RTVSPropertyOp38
 70
     1
102
RTVSPropertyOp39
 70
     1
102
RTVSPropertyOp40
 70
     1
102
RTVSPropertyOp41
 70
     1
102
RTVSPropertyOp42
 70
     1
102
RTVSPropertyOp43
 70
     1
102
RTVSPropertyOp44
 70
     1
102
RTVSPropertyOp45
 70
     1
102
RTVSPropertyOp46
 70
     1
102
RTVSPropertyOp47
 70
     1
102
RTVSPropertyOp48
 70
     1
102
RTVSPropertyOp49
 70
     1
102
RTVSPropertyOp50
 70
     1
102
RTVSPropertyOp51
 70
     0
102
RTVSPropertyOp52
 70
     0
102
RTVSPropertyOp53
 70
     1
102
RTVSPropertyOp54
 70
     1
102
RTVSPropertyOp55
 70
     1
102
RTVSPropertyOp56
 70
     1
102
RTVSPropertyOp57
 70
     1
102
RTVSPost2010Prop28
280
     1
102
RTVSPost2010PropOp28
 70
     1
102
RTVSPost2010Prop29
280
     1
102
RTVSPost2010PropOp29
 70
     1
102
RTVSPost2010Prop30
280
     0
102
RTVSPost2010PropOp30
 70
     1
102
RTVSPost2010Prop31
280
     0
102
RTVSPost2010PropOp31
 70
     1
102
RTVSPost2010Prop32
280
     0
102
RTVSPost2010PropOp32
 70
     1
102
RTVSPost2010Prop33
280
     0
102
RTVSPost2010PropOp33
 70
     1
102
RTVSPost2010Prop34
280
     0
102
RTVSPost2010PropOp34
 70
     1
102
RTVSPost2010Prop35
280
     0
102
RTVSPost2010PropOp35
 70
     1
102
RTVSPost2010Prop36
280
     0
102
RTVSPost2010PropOp36
 70
     1
102
RTVSPost2010Prop37
 90
       50
102
RTVSPost2010PropOp37
 70
     1
102
RTVSPost2010Prop38
140
0.0
102
RTVSPost2010PropOp38
 70
     1
102
RTVSPost2010Prop39
140
1.0
102
RTVSPost2010PropOp39
 70
     1
102
RTVSPost2010Prop40
 90
        0
102
RTVSPost2010PropOp40
 70
     1
102
RTVSPost2010Prop41ColorIndex
 90
       18
102
RTVSPost2010Prop41ColorRGB
 90
        0
102
RTVSPost2010PropOp41
 70
     1
102
RTVSPost2010Prop42
 90
       50
102
RTVSPost2010PropOp42
 70
     1
102
RTVSPost2010Prop43
 90
        3
102
RTVSPost2010PropOp43
 70
     1
102
RTVSPost2010Prop44ColorIndex
 90
        5
102
RTVSPost2010Prop44ColorRGB
 90
      255
102
RTVSPost2010PropOp44
 70
     1
102
RTVSPost2010Prop45
280
     0
102
RTVSPost2010PropOp45
 70
     1
102
RTVSPost2010Prop46
 90
       50
102
RTVSPost2010PropOp46
 70
     1
102
RTVSPost2010Prop47
 90
       50
102
RTVSPost2010PropOp47
 70
     1
102
RTVSPost2010Prop48
 90
       50
102
RTVSPost2010PropOp48
 70
     1
102
RTVSPost2010Prop49
280
     0
102
RTVSPost2010PropOp49
 70
     1
102
RTVSPost2010Prop50
 90
       50
102
RTVSPost2010PropOp50
 70
     1
102
RTVSPost2010Prop51ColorIndex
 90
      256
102
RTVSPost2010Prop51ColorRGB
 90
-16777216
102
RTVSPost2010PropOp51
 70
     0
102
RTVSPost2010Prop52
140
1.0
102
RTVSPost2010PropOp52
 70
     0
102
RTVSPost2010Prop53
 90
        2
102
RTVSPost2010PropOp53
 70
     1
102
RTVSPost2010Prop54
  1
strokes_ogs.tif
102
RTVSPost2010PropOp54
 70
     1
102
RTVSPost2010Prop55
280
     0
102
RTVSPost2010PropOp55
 70
     1
102
RTVSPost2010Prop56
140
1.0
102
RTVSPost2010PropOp56
 70
     1
102
RTVSPost2010Prop57
140
1.0
102
RTVSPost2010PropOp57
 70
     1
  0
XRECORD
  5
C77
102
{ACAD_REACTORS
330
C76
102
}
330
C76
100
AcDbXrecord
280
     1
102
RTVSPropertyOp0
 70
     1
102
RTVSPropertyOp1
 70
     1
102
RTVSPropertyOp2
 70
     1
102
RTVSPropertyOp3
 70
     1
102
RTVSPropertyOp4
 70
     1
102
RTVSPropertyOp5
 70
     1
102
RTVSPropertyOp6
 70
     1
102
RTVSPropertyOp7
 70
     1
102
RTVSPropertyOp8
 70
     1
102
RTVSPropertyOp9
 70
     1
102
RTVSPropertyOp10
 70
     1
102
RTVSPropertyOp11
 70
     1
102
RTVSPropertyOp12
 70
     1
102
RTVSPropertyOp13
 70
     1
102
RTVSPropertyOp14
 70
     1
102
RTVSPropertyOp15
 70
     1
102
RTVSPropertyOp16
 70
     1
102
RTVSPropertyOp17
 70
     1
102
RTVSPropertyOp18
 70
     1
102
RTVSPropertyOp19
 70
     1
102
RTVSPropertyOp20
 70
     1
102
RTVSPropertyOp21
 70
     1
102
RTVSPropertyOp22
 70
     1
102
RTVSPropertyOp23
 70
     1
102
RTVSPropertyOp24
 70
     1
102
RTVSPropertyOp25
 70
     1
102
RTVSPropertyOp26
 70
     1
102
RTVSPropertyOp27
 70
     1
102
RTVSPropertyOp28
 70
     1
102
RTVSPropertyOp29
 70
     1
102
RTVSPropertyOp30
 70
     1
102
RTVSPropertyOp31
 70
     1
102
RTVSPropertyOp32
 70
     1
102
RTVSPropertyOp33
 70
     1
102
RTVSPropertyOp34
 70
     1
102
RTVSPropertyOp35
 70
     1
102
RTVSPropertyOp36
 70
     1
102
RTVSPropertyOp37
 70
     1
102
RTVSPropertyOp38
 70
     1
102
RTVSPropertyOp39
 70
     1
102
RTVSPropertyOp40
 70
     1
102
RTVSPropertyOp41
 70
     1
102
RTVSPropertyOp42
 70
     1
102
RTVSPropertyOp43
 70
     1
102
RTVSPropertyOp44
 70
     1
102
RTVSPropertyOp45
 70
     1
102
RTVSPropertyOp46
 70
     1
102
RTVSPropertyOp47
 70
     1
102
RTVSPropertyOp48
 70
     1
102
RTVSPropertyOp49
 70
     1
102
RTVSPropertyOp50
 70
     1
102
RTVSPropertyOp51
 70
     0
102
RTVSPropertyOp52
 70
     0
102
RTVSPropertyOp53
 70
     1
102
RTVSPropertyOp54
 70
     1
102
RTVSPropertyOp55
 70
     1
102
RTVSPropertyOp56
 70
     1
102
RTVSPropertyOp57
 70
     1
102
RTVSPost2010Prop28
280
     0
102
RTVSPost2010PropOp28
 70
     1
102
RTVSPost2010Prop29
280
     1
102
RTVSPost2010PropOp29
 70
     1
102
RTVSPost2010Prop30
280
     1
102
RTVSPost2010PropOp30
 70
     1
102
RTVSPost2010Prop31
280
     0
102
RTVSPost2010PropOp31
 70
     1
102
RTVSPost2010Prop32
280
     0
102
RTVSPost2010PropOp32
 70
     1
102
RTVSPost2010Prop33
280
     0
102
RTVSPost2010PropOp33
 70
     1
102
RTVSPost2010Prop34
280
     0
102
RTVSPost2010PropOp34
 70
     1
102
RTVSPost2010Prop35
280
     0
102
RTVSPost2010PropOp35
 70
     1
102
RTVSPost2010Prop36
280
     0
102
RTVSPost2010PropOp36
 70
     1
102
RTVSPost2010Prop37
 90
       50
102
RTVSPost2010PropOp37
 70
     1
102
RTVSPost2010Prop38
140
0.0
102
RTVSPost2010PropOp38
 70
     1
102
RTVSPost2010Prop39
140
1.0
102
RTVSPost2010PropOp39
 70
     1
102
RTVSPost2010Prop40
 90
        0
102
RTVSPost2010PropOp40
 70
     1
102
RTVSPost2010Prop41ColorIndex
 90
       18
102
RTVSPost2010Prop41ColorRGB
 90
        0
102
RTVSPost2010PropOp41
 70
     1
102
RTVSPost2010Prop42
 90
       50
102
RTVSPost2010PropOp42
 70
     1
102
RTVSPost2010Prop43
 90
        3
102
RTVSPost2010PropOp43
 70
     1
102
RTVSPost2010Prop44ColorIndex
 90
        5
102
RTVSPost2010Prop44ColorRGB
 90
      255
102
RTVSPost2010PropOp44
 70
     1
102
RTVSPost2010Prop45
280
     0
102
RTVSPost2010PropOp45
 70
     1
102
RTVSPost2010Prop46
 90
       50
102
RTVSPost2010PropOp46
 70
     1
102
RTVSPost2010Prop47
 90
       50
102
RTVSPost2010PropOp47
 70
     1
102
RTVSPost2010Prop48
 90
       50
102
RTVSPost2010PropOp48
 70
     1
102
RTVSPost2010Prop49
280
     0
102
RTVSPost2010PropOp49
 70
     1
102
RTVSPost2010Prop50
 90
       50
102
RTVSPost2010PropOp50
 70
     1
102
RTVSPost2010Prop51ColorIndex
 90
      256
102
RTVSPost2010Prop51ColorRGB
 90
-16777216
102
RTVSPost2010PropOp51
 70
     0
102
RTVSPost2010Prop52
140
1.0
102
RTVSPost2010PropOp52
 70
     0
102
RTVSPost2010Prop53
 90
        2
102
RTVSPost2010PropOp53
 70
     1
102
RTVSPost2010Prop54
  1
strokes_ogs.tif
102
RTVSPost2010PropOp54
 70
     1
102
RTVSPost2010Prop55
280
     0
102
RTVSPost2010PropOp55
 70
     1
102
RTVSPost2010Prop56
140
1.0
102
RTVSPost2010PropOp56
 70
     1
102
RTVSPost2010Prop57
140
1.0
102
RTVSPost2010PropOp57
 70
     1
  0
XRECORD
  5
C7F
102
{ACAD_REACTORS
330
C7E
102
}
330
C7E
100
AcDbXrecord
280
     1
102
RTVSPropertyOp0
 70
     1
102
RTVSPropertyOp1
 70
     1
102
RTVSPropertyOp2
 70
     1
102
RTVSPropertyOp3
 70
     1
102
RTVSPropertyOp4
 70
     1
102
RTVSPropertyOp5
 70
     1
102
RTVSPropertyOp6
 70
     1
102
RTVSPropertyOp7
 70
     1
102
RTVSPropertyOp8
 70
     1
102
RTVSPropertyOp9
 70
     1
102
RTVSPropertyOp10
 70
     1
102
RTVSPropertyOp11
 70
     1
102
RTVSPropertyOp12
 70
     1
102
RTVSPropertyOp13
 70
     1
102
RTVSPropertyOp14
 70
     1
102
RTVSPropertyOp15
 70
     1
102
RTVSPropertyOp16
 70
     1
102
RTVSPropertyOp17
 70
     1
102
RTVSPropertyOp18
 70
     1
102
RTVSPropertyOp19
 70
     1
102
RTVSPropertyOp20
 70
     1
102
RTVSPropertyOp21
 70
     1
102
RTVSPropertyOp22
 70
     1
102
RTVSPropertyOp23
 70
     1
102
RTVSPropertyOp24
 70
     1
102
RTVSPropertyOp25
 70
     1
102
RTVSPropertyOp26
 70
     1
102
RTVSPropertyOp27
 70
     1
102
RTVSPropertyOp28
 70
     1
102
RTVSPropertyOp29
 70
     1
102
RTVSPropertyOp30
 70
     1
102
RTVSPropertyOp31
 70
     1
102
RTVSPropertyOp32
 70
     1
102
RTVSPropertyOp33
 70
     1
102
RTVSPropertyOp34
 70
     1
102
RTVSPropertyOp35
 70
     1
102
RTVSPropertyOp36
 70
     1
102
RTVSPropertyOp37
 70
     1
102
RTVSPropertyOp38
 70
     1
102
RTVSPropertyOp39
 70
     1
102
RTVSPropertyOp40
 70
     1
102
RTVSPropertyOp41
 70
     1
102
RTVSPropertyOp42
 70
     1
102
RTVSPropertyOp43
 70
     1
102
RTVSPropertyOp44
 70
     1
102
RTVSPropertyOp45
 70
     1
102
RTVSPropertyOp46
 70
     1
102
RTVSPropertyOp47
 70
     1
102
RTVSPropertyOp48
 70
     1
102
RTVSPropertyOp49
 70
     1
102
RTVSPropertyOp50
 70
     1
102
RTVSPropertyOp51
 70
     0
102
RTVSPropertyOp52
 70
     0
102
RTVSPropertyOp53
 70
     1
102
RTVSPropertyOp54
 70
     1
102
RTVSPropertyOp55
 70
     1
102
RTVSPropertyOp56
 70
     1
102
RTVSPropertyOp57
 70
     1
102
RTVSPost2010Prop28
280
     0
102
RTVSPost2010PropOp28
 70
     1
102
RTVSPost2010Prop29
280
     1
102
RTVSPost2010PropOp29
 70
     1
102
RTVSPost2010Prop30
280
     1
102
RTVSPost2010PropOp30
 70
     1
102
RTVSPost2010Prop31
280
     0
102
RTVSPost2010PropOp31
 70
     1
102
RTVSPost2010Prop32
280
     0
102
RTVSPost2010PropOp32
 70
     1
102
RTVSPost2010Prop33
280
     0
102
RTVSPost2010PropOp33
 70
     1
102
RTVSPost2010Prop34
280
     0
102
RTVSPost2010PropOp34
 70
     1
102
RTVSPost2010Prop35
280
     0
102
RTVSPost2010PropOp35
 70
     1
102
RTVSPost2010Prop36
280
     0
102
RTVSPost2010PropOp36
 70
     1
102
RTVSPost2010Prop37
 90
       50
102
RTVSPost2010PropOp37
 70
     1
102
RTVSPost2010Prop38
140
0.0
102
RTVSPost2010PropOp38
 70
     1
102
RTVSPost2010Prop39
140
1.0
102
RTVSPost2010PropOp39
 70
     1
102
RTVSPost2010Prop40
 90
        0
102
RTVSPost2010PropOp40
 70
     1
102
RTVSPost2010Prop41ColorIndex
 90
       18
102
RTVSPost2010Prop41ColorRGB
 90
        0
102
RTVSPost2010PropOp41
 70
     1
102
RTVSPost2010Prop42
 90
       50
102
RTVSPost2010PropOp42
 70
     1
102
RTVSPost2010Prop43
 90
        3
102
RTVSPost2010PropOp43
 70
     1
102
RTVSPost2010Prop44ColorIndex
 90
        5
102
RTVSPost2010Prop44ColorRGB
 90
      255
102
RTVSPost2010PropOp44
 70
     1
102
RTVSPost2010Prop45
280
     0
102
RTVSPost2010PropOp45
 70
     1
102
RTVSPost2010Prop46
 90
       50
102
RTVSPost2010PropOp46
 70
     1
102
RTVSPost2010Prop47
 90
       50
102
RTVSPost2010PropOp47
 70
     1
102
RTVSPost2010Prop48
 90
       50
102
RTVSPost2010PropOp48
 70
     1
102
RTVSPost2010Prop49
280
     0
102
RTVSPost2010PropOp49
 70
     1
102
RTVSPost2010Prop50
 90
       50
102
RTVSPost2010PropOp50
 70
     1
102
RTVSPost2010Prop51ColorIndex
 90
      256
102
RTVSPost2010Prop51ColorRGB
 90
-16777216
102
RTVSPost2010PropOp51
 70
     0
102
RTVSPost2010Prop52
140
1.0
102
RTVSPost2010PropOp52
 70
     0
102
RTVSPost2010Prop53
 90
        2
102
RTVSPost2010PropOp53
 70
     1
102
RTVSPost2010Prop54
  1
strokes_ogs.tif
102
RTVSPost2010PropOp54
 70
     1
102
RTVSPost2010Prop55
280
     0
102
RTVSPost2010PropOp55
 70
     1
102
RTVSPost2010Prop56
140
1.0
102
RTVSPost2010PropOp56
 70
     1
102
RTVSPost2010Prop57
140
1.0
102
RTVSPost2010PropOp57
 70
     1
  0
XRECORD
  5
C87
102
{ACAD_REACTORS
330
C86
102
}
330
C86
100
AcDbXrecord
280
     1
102
RTVSPropertyOp0
 70
     1
102
RTVSPropertyOp1
 70
     1
102
RTVSPropertyOp2
 70
     1
102
RTVSPropertyOp3
 70
     1
102
RTVSPropertyOp4
 70
     1
102
RTVSPropertyOp5
 70
     1
102
RTVSPropertyOp6
 70
     1
102
RTVSPropertyOp7
 70
     1
102
RTVSPropertyOp8
 70
     1
102
RTVSPropertyOp9
 70
     1
102
RTVSPropertyOp10
 70
     1
102
RTVSPropertyOp11
 70
     1
102
RTVSPropertyOp12
 70
     1
102
RTVSPropertyOp13
 70
     1
102
RTVSPropertyOp14
 70
     1
102
RTVSPropertyOp15
 70
     1
102
RTVSPropertyOp16
 70
     1
102
RTVSPropertyOp17
 70
     1
102
RTVSPropertyOp18
 70
     1
102
RTVSPropertyOp19
 70
     1
102
RTVSPropertyOp20
 70
     1
102
RTVSPropertyOp21
 70
     1
102
RTVSPropertyOp22
 70
     1
102
RTVSPropertyOp23
 70
     1
102
RTVSPropertyOp24
 70
     1
102
RTVSPropertyOp25
 70
     1
102
RTVSPropertyOp26
 70
     1
102
RTVSPropertyOp27
 70
     1
102
RTVSPropertyOp28
 70
     1
102
RTVSPropertyOp29
 70
     1
102
RTVSPropertyOp30
 70
     1
102
RTVSPropertyOp31
 70
     1
102
RTVSPropertyOp32
 70
     1
102
RTVSPropertyOp33
 70
     1
102
RTVSPropertyOp34
 70
     1
102
RTVSPropertyOp35
 70
     1
102
RTVSPropertyOp36
 70
     1
102
RTVSPropertyOp37
 70
     1
102
RTVSPropertyOp38
 70
     1
102
RTVSPropertyOp39
 70
     1
102
RTVSPropertyOp40
 70
     1
102
RTVSPropertyOp41
 70
     1
102
RTVSPropertyOp42
 70
     1
102
RTVSPropertyOp43
 70
     1
102
RTVSPropertyOp44
 70
     1
102
RTVSPropertyOp45
 70
     1
102
RTVSPropertyOp46
 70
     1
102
RTVSPropertyOp47
 70
     1
102
RTVSPropertyOp48
 70
     1
102
RTVSPropertyOp49
 70
     1
102
RTVSPropertyOp50
 70
     1
102
RTVSPropertyOp51
 70
     0
102
RTVSPropertyOp52
 70
     0
102
RTVSPropertyOp53
 70
     1
102
RTVSPropertyOp54
 70
     1
102
RTVSPropertyOp55
 70
     1
102
RTVSPropertyOp56
 70
     1
102
RTVSPropertyOp57
 70
     1
102
RTVSPost2010Prop28
280
     0
102
RTVSPost2010PropOp28
 70
     1
102
RTVSPost2010Prop29
280
     1
102
RTVSPost2010PropOp29
 70
     1
102
RTVSPost2010Prop30
280
     1
102
RTVSPost2010PropOp30
 70
     1
102
RTVSPost2010Prop31
280
     0
102
RTVSPost2010PropOp31
 70
     1
102
RTVSPost2010Prop32
280
     0
102
RTVSPost2010PropOp32
 70
     1
102
RTVSPost2010Prop33
280
     0
102
RTVSPost2010PropOp33
 70
     1
102
RTVSPost2010Prop34
280
     0
102
RTVSPost2010PropOp34
 70
     1
102
RTVSPost2010Prop35
280
     0
102
RTVSPost2010PropOp35
 70
     1
102
RTVSPost2010Prop36
280
     0
102
RTVSPost2010PropOp36
 70
     1
102
RTVSPost2010Prop37
 90
       50
102
RTVSPost2010PropOp37
 70
     1
102
RTVSPost2010Prop38
140
0.0
102
RTVSPost2010PropOp38
 70
     1
102
RTVSPost2010Prop39
140
1.0
102
RTVSPost2010PropOp39
 70
     1
102
RTVSPost2010Prop40
 90
        0
102
RTVSPost2010PropOp40
 70
     1
102
RTVSPost2010Prop41ColorIndex
 90
       18
102
RTVSPost2010Prop41ColorRGB
 90
        0
102
RTVSPost2010PropOp41
 70
     1
102
RTVSPost2010Prop42
 90
       50
102
RTVSPost2010PropOp42
 70
     1
102
RTVSPost2010Prop43
 90
        3
102
RTVSPost2010PropOp43
 70
     1
102
RTVSPost2010Prop44ColorIndex
 90
        5
102
RTVSPost2010Prop44ColorRGB
 90
      255
102
RTVSPost2010PropOp44
 70
     1
102
RTVSPost2010Prop45
280
     0
102
RTVSPost2010PropOp45
 70
     1
102
RTVSPost2010Prop46
 90
       50
102
RTVSPost2010PropOp46
 70
     1
102
RTVSPost2010Prop47
 90
       50
102
RTVSPost2010PropOp47
 70
     1
102
RTVSPost2010Prop48
 90
       50
102
RTVSPost2010PropOp48
 70
     1
102
RTVSPost2010Prop49
280
     0
102
RTVSPost2010PropOp49
 70
     1
102
RTVSPost2010Prop50
 90
       50
102
RTVSPost2010PropOp50
 70
     1
102
RTVSPost2010Prop51ColorIndex
 90
      256
102
RTVSPost2010Prop51ColorRGB
 90
-16777216
102
RTVSPost2010PropOp51
 70
     0
102
RTVSPost2010Prop52
140
1.0
102
RTVSPost2010PropOp52
 70
     0
102
RTVSPost2010Prop53
 90
        2
102
RTVSPost2010PropOp53
 70
     1
102
RTVSPost2010Prop54
  1
strokes_ogs.tif
102
RTVSPost2010PropOp54
 70
     1
102
RTVSPost2010Prop55
280
     0
102
RTVSPost2010PropOp55
 70
     1
102
RTVSPost2010Prop56
140
1.0
102
RTVSPost2010PropOp56
 70
     1
102
RTVSPost2010Prop57
140
1.0
102
RTVSPost2010PropOp57
 70
     1
  0
XRECORD
  5
C7B
102
{ACAD_REACTORS
330
C7A
102
}
330
C7A
100
AcDbXrecord
280
     1
102
RTVSPropertyOp0
 70
     1
102
RTVSPropertyOp1
 70
     1
102
RTVSPropertyOp2
 70
     1
102
RTVSPropertyOp3
 70
     1
102
RTVSPropertyOp4
 70
     1
102
RTVSPropertyOp5
 70
     1
102
RTVSPropertyOp6
 70
     1
102
RTVSPropertyOp7
 70
     1
102
RTVSPropertyOp8
 70
     1
102
RTVSPropertyOp9
 70
     1
102
RTVSPropertyOp10
 70
     1
102
RTVSPropertyOp11
 70
     1
102
RTVSPropertyOp12
 70
     1
102
RTVSPropertyOp13
 70
     1
102
RTVSPropertyOp14
 70
     1
102
RTVSPropertyOp15
 70
     1
102
RTVSPropertyOp16
 70
     1
102
RTVSPropertyOp17
 70
     1
102
RTVSPropertyOp18
 70
     1
102
RTVSPropertyOp19
 70
     1
102
RTVSPropertyOp20
 70
     1
102
RTVSPropertyOp21
 70
     1
102
RTVSPropertyOp22
 70
     1
102
RTVSPropertyOp23
 70
     1
102
RTVSPropertyOp24
 70
     1
102
RTVSPropertyOp25
 70
     1
102
RTVSPropertyOp26
 70
     1
102
RTVSPropertyOp27
 70
     1
102
RTVSPropertyOp28
 70
     1
102
RTVSPropertyOp29
 70
     1
102
RTVSPropertyOp30
 70
     1
102
RTVSPropertyOp31
 70
     1
102
RTVSPropertyOp32
 70
     1
102
RTVSPropertyOp33
 70
     1
102
RTVSPropertyOp34
 70
     1
102
RTVSPropertyOp35
 70
     1
102
RTVSPropertyOp36
 70
     1
102
RTVSPropertyOp37
 70
     1
102
RTVSPropertyOp38
 70
     1
102
RTVSPropertyOp39
 70
     1
102
RTVSPropertyOp40
 70
     1
102
RTVSPropertyOp41
 70
     1
102
RTVSPropertyOp42
 70
     1
102
RTVSPropertyOp43
 70
     1
102
RTVSPropertyOp44
 70
     1
102
RTVSPropertyOp45
 70
     1
102
RTVSPropertyOp46
 70
     1
102
RTVSPropertyOp47
 70
     1
102
RTVSPropertyOp48
 70
     1
102
RTVSPropertyOp49
 70
     1
102
RTVSPropertyOp50
 70
     1
102
RTVSPropertyOp51
 70
     0
102
RTVSPropertyOp52
 70
     0
102
RTVSPropertyOp53
 70
     1
102
RTVSPropertyOp54
 70
     1
102
RTVSPropertyOp55
 70
     1
102
RTVSPropertyOp56
 70
     1
102
RTVSPropertyOp57
 70
     1
102
RTVSPost2010Prop28
280
     0
102
RTVSPost2010PropOp28
 70
     1
102
RTVSPost2010Prop29
280
     1
102
RTVSPost2010PropOp29
 70
     1
102
RTVSPost2010Prop30
280
     1
102
RTVSPost2010PropOp30
 70
     1
102
RTVSPost2010Prop31
280
     0
102
RTVSPost2010PropOp31
 70
     1
102
RTVSPost2010Prop32
280
     0
102
RTVSPost2010PropOp32
 70
     1
102
RTVSPost2010Prop33
280
     0
102
RTVSPost2010PropOp33
 70
     1
102
RTVSPost2010Prop34
280
     0
102
RTVSPost2010PropOp34
 70
     1
102
RTVSPost2010Prop35
280
     0
102
RTVSPost2010PropOp35
 70
     1
102
RTVSPost2010Prop36
280
     0
102
RTVSPost2010PropOp36
 70
     1
102
RTVSPost2010Prop37
 90
       50
102
RTVSPost2010PropOp37
 70
     1
102
RTVSPost2010Prop38
140
0.0
102
RTVSPost2010PropOp38
 70
     1
102
RTVSPost2010Prop39
140
1.0
102
RTVSPost2010PropOp39
 70
     1
102
RTVSPost2010Prop40
 90
        0
102
RTVSPost2010PropOp40
 70
     1
102
RTVSPost2010Prop41ColorIndex
 90
       18
102
RTVSPost2010Prop41ColorRGB
 90
        0
102
RTVSPost2010PropOp41
 70
     1
102
RTVSPost2010Prop42
 90
       50
102
RTVSPost2010PropOp42
 70
     1
102
RTVSPost2010Prop43
 90
        3
102
RTVSPost2010PropOp43
 70
     1
102
RTVSPost2010Prop44ColorIndex
 90
        5
102
RTVSPost2010Prop44ColorRGB
 90
      255
102
RTVSPost2010PropOp44
 70
     1
102
RTVSPost2010Prop45
280
     0
102
RTVSPost2010PropOp45
 70
     1
102
RTVSPost2010Prop46
 90
       50
102
RTVSPost2010PropOp46
 70
     1
102
RTVSPost2010Prop47
 90
       50
102
RTVSPost2010PropOp47
 70
     1
102
RTVSPost2010Prop48
 90
       50
102
RTVSPost2010PropOp48
 70
     1
102
RTVSPost2010Prop49
280
     0
102
RTVSPost2010PropOp49
 70
     1
102
RTVSPost2010Prop50
 90
       50
102
RTVSPost2010PropOp50
 70
     1
102
RTVSPost2010Prop51ColorIndex
 90
      256
102
RTVSPost2010Prop51ColorRGB
 90
-16777216
102
RTVSPost2010PropOp51
 70
     0
102
RTVSPost2010Prop52
140
1.0
102
RTVSPost2010PropOp52
 70
     0
102
RTVSPost2010Prop53
 90
        2
102
RTVSPost2010PropOp53
 70
     1
102
RTVSPost2010Prop54
  1
strokes_ogs.tif
102
RTVSPost2010PropOp54
 70
     1
102
RTVSPost2010Prop55
280
     0
102
RTVSPost2010PropOp55
 70
     1
102
RTVSPost2010Prop56
140
1.0
102
RTVSPost2010PropOp56
 70
     1
102
RTVSPost2010Prop57
140
1.0
102
RTVSPost2010PropOp57
 70
     1
  0
XRECORD
  5
C7D
102
{ACAD_REACTORS
330
C7C
102
}
330
C7C
100
AcDbXrecord
280
     1
102
RTVSPropertyOp0
 70
     1
102
RTVSPropertyOp1
 70
     1
102
RTVSPropertyOp2
 70
     1
102
RTVSPropertyOp3
 70
     1
102
RTVSPropertyOp4
 70
     1
102
RTVSPropertyOp5
 70
     1
102
RTVSPropertyOp6
 70
     1
102
RTVSPropertyOp7
 70
     1
102
RTVSPropertyOp8
 70
     1
102
RTVSPropertyOp9
 70
     1
102
RTVSPropertyOp10
 70
     1
102
RTVSPropertyOp11
 70
     1
102
RTVSPropertyOp12
 70
     1
102
RTVSPropertyOp13
 70
     1
102
RTVSPropertyOp14
 70
     1
102
RTVSPropertyOp15
 70
     1
102
RTVSPropertyOp16
 70
     1
102
RTVSPropertyOp17
 70
     1
102
RTVSPropertyOp18
 70
     1
102
RTVSPropertyOp19
 70
     1
102
RTVSPropertyOp20
 70
     1
102
RTVSPropertyOp21
 70
     1
102
RTVSPropertyOp22
 70
     1
102
RTVSPropertyOp23
 70
     1
102
RTVSPropertyOp24
 70
     1
102
RTVSPropertyOp25
 70
     1
102
RTVSPropertyOp26
 70
     1
102
RTVSPropertyOp27
 70
     1
102
RTVSPropertyOp28
 70
     1
102
RTVSPropertyOp29
 70
     1
102
RTVSPropertyOp30
 70
     1
102
RTVSPropertyOp31
 70
     1
102
RTVSPropertyOp32
 70
     1
102
RTVSPropertyOp33
 70
     1
102
RTVSPropertyOp34
 70
     1
102
RTVSPropertyOp35
 70
     1
102
RTVSPropertyOp36
 70
     1
102
RTVSPropertyOp37
 70
     1
102
RTVSPropertyOp38
 70
     1
102
RTVSPropertyOp39
 70
     1
102
RTVSPropertyOp40
 70
     1
102
RTVSPropertyOp41
 70
     1
102
RTVSPropertyOp42
 70
     1
102
RTVSPropertyOp43
 70
     1
102
RTVSPropertyOp44
 70
     1
102
RTVSPropertyOp45
 70
     1
102
RTVSPropertyOp46
 70
     1
102
RTVSPropertyOp47
 70
     1
102
RTVSPropertyOp48
 70
     1
102
RTVSPropertyOp49
 70
     1
102
RTVSPropertyOp50
 70
     1
102
RTVSPropertyOp51
 70
     0
102
RTVSPropertyOp52
 70
     0
102
RTVSPropertyOp53
 70
     1
102
RTVSPropertyOp54
 70
     1
102
RTVSPropertyOp55
 70
     1
102
RTVSPropertyOp56
 70
     1
102
RTVSPropertyOp57
 70
     1
102
RTVSPost2010Prop28
280
     0
102
RTVSPost2010PropOp28
 70
     1
102
RTVSPost2010Prop29
280
     1
102
RTVSPost2010PropOp29
 70
     1
102
RTVSPost2010Prop30
280
     1
102
RTVSPost2010PropOp30
 70
     1
102
RTVSPost2010Prop31
280
     0
102
RTVSPost2010PropOp31
 70
     1
102
RTVSPost2010Prop32
280
     0
102
RTVSPost2010PropOp32
 70
     1
102
RTVSPost2010Prop33
280
     0
102
RTVSPost2010PropOp33
 70
     1
102
RTVSPost2010Prop34
280
     0
102
RTVSPost2010PropOp34
 70
     1
102
RTVSPost2010Prop35
280
     0
102
RTVSPost2010PropOp35
 70
     1
102
RTVSPost2010Prop36
280
     0
102
RTVSPost2010PropOp36
 70
     1
102
RTVSPost2010Prop37
 90
       50
102
RTVSPost2010PropOp37
 70
     1
102
RTVSPost2010Prop38
140
0.0
102
RTVSPost2010PropOp38
 70
     1
102
RTVSPost2010Prop39
140
1.0
102
RTVSPost2010PropOp39
 70
     1
102
RTVSPost2010Prop40
 90
        0
102
RTVSPost2010PropOp40
 70
     1
102
RTVSPost2010Prop41ColorIndex
 90
       18
102
RTVSPost2010Prop41ColorRGB
 90
        0
102
RTVSPost2010PropOp41
 70
     1
102
RTVSPost2010Prop42
 90
       50
102
RTVSPost2010PropOp42
 70
     1
102
RTVSPost2010Prop43
 90
        3
102
RTVSPost2010PropOp43
 70
     1
102
RTVSPost2010Prop44ColorIndex
 90
        5
102
RTVSPost2010Prop44ColorRGB
 90
      255
102
RTVSPost2010PropOp44
 70
     1
102
RTVSPost2010Prop45
280
     0
102
RTVSPost2010PropOp45
 70
     1
102
RTVSPost2010Prop46
 90
       50
102
RTVSPost2010PropOp46
 70
     1
102
RTVSPost2010Prop47
 90
       50
102
RTVSPost2010PropOp47
 70
     1
102
RTVSPost2010Prop48
 90
       50
102
RTVSPost2010PropOp48
 70
     1
102
RTVSPost2010Prop49
280
     0
102
RTVSPost2010PropOp49
 70
     1
102
RTVSPost2010Prop50
 90
       50
102
RTVSPost2010PropOp50
 70
     1
102
RTVSPost2010Prop51ColorIndex
 90
      256
102
RTVSPost2010Prop51ColorRGB
 90
-16777216
102
RTVSPost2010PropOp51
 70
     0
102
RTVSPost2010Prop52
140
1.0
102
RTVSPost2010PropOp52
 70
     0
102
RTVSPost2010Prop53
 90
        2
102
RTVSPost2010PropOp53
 70
     1
102
RTVSPost2010Prop54
  1
strokes_ogs.tif
102
RTVSPost2010PropOp54
 70
     1
102
RTVSPost2010Prop55
280
     0
102
RTVSPost2010PropOp55
 70
     1
102
RTVSPost2010Prop56
140
1.0
102
RTVSPost2010PropOp56
 70
     1
102
RTVSPost2010Prop57
140
1.0
102
RTVSPost2010PropOp57
 70
     1
  0
XRECORD
  5
C8D
102
{ACAD_REACTORS
330
C8C
102
}
330
C8C
100
AcDbXrecord
280
     1
102
RTVSPropertyOp0
 70
     0
102
RTVSPropertyOp1
 70
     0
102
RTVSPropertyOp2
 70
     0
102
RTVSPropertyOp3
 70
     0
102
RTVSPropertyOp4
 70
     0
102
RTVSPropertyOp5
 70
     0
102
RTVSPropertyOp6
 70
     0
102
RTVSPropertyOp7
 70
     0
102
RTVSPropertyOp8
 70
     0
102
RTVSPropertyOp9
 70
     0
102
RTVSPropertyOp10
 70
     0
102
RTVSPropertyOp11
 70
     0
102
RTVSPropertyOp12
 70
     0
102
RTVSPropertyOp13
 70
     0
102
RTVSPropertyOp14
 70
     2
102
RTVSPropertyOp15
 70
     0
102
RTVSPropertyOp16
 70
     0
102
RTVSPropertyOp17
 70
     0
102
RTVSPropertyOp18
 70
     0
102
RTVSPropertyOp19
 70
     0
102
RTVSPropertyOp20
 70
     0
102
RTVSPropertyOp21
 70
     0
102
RTVSPropertyOp22
 70
     0
102
RTVSPropertyOp23
 70
     0
102
RTVSPropertyOp24
 70
     0
102
RTVSPropertyOp25
 70
     0
102
RTVSPropertyOp26
 70
     0
102
RTVSPropertyOp27
 70
     0
102
RTVSPropertyOp28
 70
     0
102
RTVSPropertyOp29
 70
     0
102
RTVSPropertyOp30
 70
     0
102
RTVSPropertyOp31
 70
     0
102
RTVSPropertyOp32
 70
     0
102
RTVSPropertyOp33
 70
     0
102
RTVSPropertyOp34
 70
     0
102
RTVSPropertyOp35
 70
     0
102
RTVSPropertyOp36
 70
     0
102
RTVSPropertyOp37
 70
     0
102
RTVSPropertyOp38
 70
     0
102
RTVSPropertyOp39
 70
     0
102
RTVSPropertyOp40
 70
     0
102
RTVSPropertyOp41
 70
     0
102
RTVSPropertyOp42
 70
     0
102
RTVSPropertyOp43
 70
     0
102
RTVSPropertyOp44
 70
     0
102
RTVSPropertyOp45
 70
     0
102
RTVSPropertyOp46
 70
     0
102
RTVSPropertyOp47
 70
     0
102
RTVSPropertyOp48
 70
     0
102
RTVSPropertyOp49
 70
     0
102
RTVSPropertyOp50
 70
     0
102
RTVSPropertyOp51
 70
     0
102
RTVSPropertyOp52
 70
     0
102
RTVSPropertyOp53
 70
     0
102
RTVSPropertyOp54
 70
     0
102
RTVSPropertyOp55
 70
     0
102
RTVSPropertyOp56
 70
     0
102
RTVSPropertyOp57
 70
     0
102
RTVSPost2010Prop28
280
     0
102
RTVSPost2010PropOp28
 70
     0
102
RTVSPost2010Prop29
280
     1
102
RTVSPost2010PropOp29
 70
     0
102
RTVSPost2010Prop30
280
     1
102
RTVSPost2010PropOp30
 70
     0
102
RTVSPost2010Prop31
280
     0
102
RTVSPost2010PropOp31
 70
     0
102
RTVSPost2010Prop32
280
     0
102
RTVSPost2010PropOp32
 70
     0
102
RTVSPost2010Prop33
280
     0
102
RTVSPost2010PropOp33
 70
     0
102
RTVSPost2010Prop34
280
     0
102
RTVSPost2010PropOp34
 70
     0
102
RTVSPost2010Prop35
280
     0
102
RTVSPost2010PropOp35
 70
     0
102
RTVSPost2010Prop36
280
     0
102
RTVSPost2010PropOp36
 70
     0
102
RTVSPost2010Prop37
 90
       50
102
RTVSPost2010PropOp37
 70
     0
102
RTVSPost2010Prop38
140
0.0
102
RTVSPost2010PropOp38
 70
     0
102
RTVSPost2010Prop39
140
1.0
102
RTVSPost2010PropOp39
 70
     0
102
RTVSPost2010Prop40
 90
        0
102
RTVSPost2010PropOp40
 70
     0
102
RTVSPost2010Prop41ColorIndex
 90
       18
102
RTVSPost2010Prop41ColorRGB
 90
        0
102
RTVSPost2010PropOp41
 70
     0
102
RTVSPost2010Prop42
 90
       50
102
RTVSPost2010PropOp42
 70
     0
102
RTVSPost2010Prop43
 90
        3
102
RTVSPost2010PropOp43
 70
     0
102
RTVSPost2010Prop44ColorIndex
 90
        5
102
RTVSPost2010Prop44ColorRGB
 90
      255
102
RTVSPost2010PropOp44
 70
     0
102
RTVSPost2010Prop45
280
     0
102
RTVSPost2010PropOp45
 70
     0
102
RTVSPost2010Prop46
 90
       50
102
RTVSPost2010PropOp46
 70
     0
102
RTVSPost2010Prop47
 90
       50
102
RTVSPost2010PropOp47
 70
     0
102
RTVSPost2010Prop48
 90
       50
102
RTVSPost2010PropOp48
 70
     0
102
RTVSPost2010Prop49
280
     0
102
RTVSPost2010PropOp49
 70
     0
102
RTVSPost2010Prop50
 90
       50
102
RTVSPost2010PropOp50
 70
     0
102
RTVSPost2010Prop51ColorIndex
 90
      256
102
RTVSPost2010Prop51ColorRGB
 90
-16777216
102
RTVSPost2010PropOp51
 70
     0
102
RTVSPost2010Prop52
140
1.0
102
RTVSPost2010PropOp52
 70
     0
102
RTVSPost2010Prop53
 90
        2
102
RTVSPost2010PropOp53
 70
     0
102
RTVSPost2010Prop54
  1
strokes_ogs.tif
102
RTVSPost2010PropOp54
 70
     0
102
RTVSPost2010Prop55
280
     0
102
RTVSPost2010PropOp55
 70
     0
102
RTVSPost2010Prop56
140
1.0
102
RTVSPost2010PropOp56
 70
     0
102
RTVSPost2010Prop57
140
1.0
102
RTVSPost2010PropOp57
 70
     0
  0
XRECORD
  5
C85
102
{ACAD_REACTORS
330
C84
102
}
330
C84
100
AcDbXrecord
280
     1
102
RTVSPropertyOp0
 70
     1
102
RTVSPropertyOp1
 70
     1
102
RTVSPropertyOp2
 70
     1
102
RTVSPropertyOp3
 70
     1
102
RTVSPropertyOp4
 70
     1
102
RTVSPropertyOp5
 70
     1
102
RTVSPropertyOp6
 70
     1
102
RTVSPropertyOp7
 70
     1
102
RTVSPropertyOp8
 70
     1
102
RTVSPropertyOp9
 70
     1
102
RTVSPropertyOp10
 70
     1
102
RTVSPropertyOp11
 70
     1
102
RTVSPropertyOp12
 70
     1
102
RTVSPropertyOp13
 70
     1
102
RTVSPropertyOp14
 70
     1
102
RTVSPropertyOp15
 70
     1
102
RTVSPropertyOp16
 70
     1
102
RTVSPropertyOp17
 70
     1
102
RTVSPropertyOp18
 70
     1
102
RTVSPropertyOp19
 70
     1
102
RTVSPropertyOp20
 70
     1
102
RTVSPropertyOp21
 70
     1
102
RTVSPropertyOp22
 70
     1
102
RTVSPropertyOp23
 70
     1
102
RTVSPropertyOp24
 70
     1
102
RTVSPropertyOp25
 70
     1
102
RTVSPropertyOp26
 70
     1
102
RTVSPropertyOp27
 70
     1
102
RTVSPropertyOp28
 70
     1
102
RTVSPropertyOp29
 70
     1
102
RTVSPropertyOp30
 70
     1
102
RTVSPropertyOp31
 70
     1
102
RTVSPropertyOp32
 70
     1
102
RTVSPropertyOp33
 70
     1
102
RTVSPropertyOp34
 70
     1
102
RTVSPropertyOp35
 70
     1
102
RTVSPropertyOp36
 70
     1
102
RTVSPropertyOp37
 70
     1
102
RTVSPropertyOp38
 70
     1
102
RTVSPropertyOp39
 70
     1
102
RTVSPropertyOp40
 70
     1
102
RTVSPropertyOp41
 70
     1
102
RTVSPropertyOp42
 70
     1
102
RTVSPropertyOp43
 70
     1
102
RTVSPropertyOp44
 70
     1
102
RTVSPropertyOp45
 70
     1
102
RTVSPropertyOp46
 70
     1
102
RTVSPropertyOp47
 70
     1
102
RTVSPropertyOp48
 70
     1
102
RTVSPropertyOp49
 70
     1
102
RTVSPropertyOp50
 70
     1
102
RTVSPropertyOp51
 70
     0
102
RTVSPropertyOp52
 70
     0
102
RTVSPropertyOp53
 70
     1
102
RTVSPropertyOp54
 70
     1
102
RTVSPropertyOp55
 70
     1
102
RTVSPropertyOp56
 70
     1
102
RTVSPropertyOp57
 70
     1
102
RTVSPost2010Prop28
280
     0
102
RTVSPost2010PropOp28
 70
     1
102
RTVSPost2010Prop29
280
     1
102
RTVSPost2010PropOp29
 70
     1
102
RTVSPost2010Prop30
280
     1
102
RTVSPost2010PropOp30
 70
     1
102
RTVSPost2010Prop31
280
     0
102
RTVSPost2010PropOp31
 70
     1
102
RTVSPost2010Prop32
280
     0
102
RTVSPost2010PropOp32
 70
     1
102
RTVSPost2010Prop33
280
     0
102
RTVSPost2010PropOp33
 70
     1
102
RTVSPost2010Prop34
280
     0
102
RTVSPost2010PropOp34
 70
     1
102
RTVSPost2010Prop35
280
     0
102
RTVSPost2010PropOp35
 70
     1
102
RTVSPost2010Prop36
280
     0
102
RTVSPost2010PropOp36
 70
     1
102
RTVSPost2010Prop37
 90
       50
102
RTVSPost2010PropOp37
 70
     1
102
RTVSPost2010Prop38
140
0.0
102
RTVSPost2010PropOp38
 70
     1
102
RTVSPost2010Prop39
140
1.0
102
RTVSPost2010PropOp39
 70
     1
102
RTVSPost2010Prop40
 90
        0
102
RTVSPost2010PropOp40
 70
     1
102
RTVSPost2010Prop41ColorIndex
 90
       18
102
RTVSPost2010Prop41ColorRGB
 90
        0
102
RTVSPost2010PropOp41
 70
     1
102
RTVSPost2010Prop42
 90
       50
102
RTVSPost2010PropOp42
 70
     1
102
RTVSPost2010Prop43
 90
        3
102
RTVSPost2010PropOp43
 70
     1
102
RTVSPost2010Prop44ColorIndex
 90
        5
102
RTVSPost2010Prop44ColorRGB
 90
      255
102
RTVSPost2010PropOp44
 70
     1
102
RTVSPost2010Prop45
280
     0
102
RTVSPost2010PropOp45
 70
     1
102
RTVSPost2010Prop46
 90
       50
102
RTVSPost2010PropOp46
 70
     1
102
RTVSPost2010Prop47
 90
       50
102
RTVSPost2010PropOp47
 70
     1
102
RTVSPost2010Prop48
 90
       50
102
RTVSPost2010PropOp48
 70
     1
102
RTVSPost2010Prop49
280
     0
102
RTVSPost2010PropOp49
 70
     1
102
RTVSPost2010Prop50
 90
       50
102
RTVSPost2010PropOp50
 70
     1
102
RTVSPost2010Prop51ColorIndex
 90
      256
102
RTVSPost2010Prop51ColorRGB
 90
-16777216
102
RTVSPost2010PropOp51
 70
     0
102
RTVSPost2010Prop52
140
1.0
102
RTVSPost2010PropOp52
 70
     0
102
RTVSPost2010Prop53
 90
        2
102
RTVSPost2010PropOp53
 70
     1
102
RTVSPost2010Prop54
  1
strokes_ogs.tif
102
RTVSPost2010PropOp54
 70
     1
102
RTVSPost2010Prop55
280
     0
102
RTVSPost2010PropOp55
 70
     1
102
RTVSPost2010Prop56
140
1.0
102
RTVSPost2010PropOp56
 70
     1
102
RTVSPost2010Prop57
140
1.0
102
RTVSPost2010PropOp57
 70
     1
  0
XRECORD
  5
C69
102
{ACAD_REACTORS
330
C68
102
}
330
C68
100
AcDbXrecord
280
     1
102
RTVSPropertyOp0
 70
     1
102
RTVSPropertyOp1
 70
     1
102
RTVSPropertyOp2
 70
     1
102
RTVSPropertyOp3
 70
     1
102
RTVSPropertyOp4
 70
     1
102
RTVSPropertyOp5
 70
     1
102
RTVSPropertyOp6
 70
     1
102
RTVSPropertyOp7
 70
     1
102
RTVSPropertyOp8
 70
     1
102
RTVSPropertyOp9
 70
     1
102
RTVSPropertyOp10
 70
     1
102
RTVSPropertyOp11
 70
     1
102
RTVSPropertyOp12
 70
     1
102
RTVSPropertyOp13
 70
     1
102
RTVSPropertyOp14
 70
     1
102
RTVSPropertyOp15
 70
     1
102
RTVSPropertyOp16
 70
     1
102
RTVSPropertyOp17
 70
     1
102
RTVSPropertyOp18
 70
     1
102
RTVSPropertyOp19
 70
     1
102
RTVSPropertyOp20
 70
     1
102
RTVSPropertyOp21
 70
     1
102
RTVSPropertyOp22
 70
     1
102
RTVSPropertyOp23
 70
     1
102
RTVSPropertyOp24
 70
     1
102
RTVSPropertyOp25
 70
     1
102
RTVSPropertyOp26
 70
     1
102
RTVSPropertyOp27
 70
     1
102
RTVSPropertyOp28
 70
     1
102
RTVSPropertyOp29
 70
     1
102
RTVSPropertyOp30
 70
     1
102
RTVSPropertyOp31
 70
     1
102
RTVSPropertyOp32
 70
     1
102
RTVSPropertyOp33
 70
     1
102
RTVSPropertyOp34
 70
     1
102
RTVSPropertyOp35
 70
     1
102
RTVSPropertyOp36
 70
     1
102
RTVSPropertyOp37
 70
     1
102
RTVSPropertyOp38
 70
     1
102
RTVSPropertyOp39
 70
     1
102
RTVSPropertyOp40
 70
     1
102
RTVSPropertyOp41
 70
     1
102
RTVSPropertyOp42
 70
     1
102
RTVSPropertyOp43
 70
     1
102
RTVSPropertyOp44
 70
     1
102
RTVSPropertyOp45
 70
     1
102
RTVSPropertyOp46
 70
     1
102
RTVSPropertyOp47
 70
     1
102
RTVSPropertyOp48
 70
     1
102
RTVSPropertyOp49
 70
     1
102
RTVSPropertyOp50
 70
     1
102
RTVSPropertyOp51
 70
     0
102
RTVSPropertyOp52
 70
     0
102
RTVSPropertyOp53
 70
     1
102
RTVSPropertyOp54
 70
     1
102
RTVSPropertyOp55
 70
     1
102
RTVSPropertyOp56
 70
     1
102
RTVSPropertyOp57
 70
     1
102
RTVSPost2010Prop28
280
     0
102
RTVSPost2010PropOp28
 70
     1
102
RTVSPost2010Prop29
280
     1
102
RTVSPost2010PropOp29
 70
     1
102
RTVSPost2010Prop30
280
     1
102
RTVSPost2010PropOp30
 70
     1
102
RTVSPost2010Prop31
280
     0
102
RTVSPost2010PropOp31
 70
     1
102
RTVSPost2010Prop32
280
     0
102
RTVSPost2010PropOp32
 70
     1
102
RTVSPost2010Prop33
280
     0
102
RTVSPost2010PropOp33
 70
     1
102
RTVSPost2010Prop34
280
     0
102
RTVSPost2010PropOp34
 70
     1
102
RTVSPost2010Prop35
280
     0
102
RTVSPost2010PropOp35
 70
     1
102
RTVSPost2010Prop36
280
     0
102
RTVSPost2010PropOp36
 70
     1
102
RTVSPost2010Prop37
 90
       50
102
RTVSPost2010PropOp37
 70
     1
102
RTVSPost2010Prop38
140
0.0
102
RTVSPost2010PropOp38
 70
     1
102
RTVSPost2010Prop39
140
1.0
102
RTVSPost2010PropOp39
 70
     1
102
RTVSPost2010Prop40
 90
        0
102
RTVSPost2010PropOp40
 70
     1
102
RTVSPost2010Prop41ColorIndex
 90
       18
102
RTVSPost2010Prop41ColorRGB
 90
        0
102
RTVSPost2010PropOp41
 70
     1
102
RTVSPost2010Prop42
 90
       50
102
RTVSPost2010PropOp42
 70
     1
102
RTVSPost2010Prop43
 90
        3
102
RTVSPost2010PropOp43
 70
     1
102
RTVSPost2010Prop44ColorIndex
 90
        5
102
RTVSPost2010Prop44ColorRGB
 90
      255
102
RTVSPost2010PropOp44
 70
     1
102
RTVSPost2010Prop45
280
     0
102
RTVSPost2010PropOp45
 70
     1
102
RTVSPost2010Prop46
 90
       50
102
RTVSPost2010PropOp46
 70
     1
102
RTVSPost2010Prop47
 90
       50
102
RTVSPost2010PropOp47
 70
     1
102
RTVSPost2010Prop48
 90
       50
102
RTVSPost2010PropOp48
 70
     1
102
RTVSPost2010Prop49
280
     0
102
RTVSPost2010PropOp49
 70
     1
102
RTVSPost2010Prop50
 90
       50
102
RTVSPost2010PropOp50
 70
     1
102
RTVSPost2010Prop51ColorIndex
 90
      256
102
RTVSPost2010Prop51ColorRGB
 90
-16777216
102
RTVSPost2010PropOp51
 70
     0
102
RTVSPost2010Prop52
140
1.0
102
RTVSPost2010PropOp52
 70
     0
102
RTVSPost2010Prop53
 90
        2
102
RTVSPost2010PropOp53
 70
     1
102
RTVSPost2010Prop54
  1
strokes_ogs.tif
102
RTVSPost2010PropOp54
 70
     1
102
RTVSPost2010Prop55
280
     0
102
RTVSPost2010PropOp55
 70
     1
102
RTVSPost2010Prop56
140
1.0
102
RTVSPost2010PropOp56
 70
     1
102
RTVSPost2010Prop57
140
1.0
102
RTVSPost2010PropOp57
 70
     1
  0
XRECORD
  5
C6B
102
{ACAD_REACTORS
330
C6A
102
}
330
C6A
100
AcDbXrecord
280
     1
102
RTVSPropertyOp0
 70
     1
102
RTVSPropertyOp1
 70
     1
102
RTVSPropertyOp2
 70
     1
102
RTVSPropertyOp3
 70
     1
102
RTVSPropertyOp4
 70
     1
102
RTVSPropertyOp5
 70
     1
102
RTVSPropertyOp6
 70
     1
102
RTVSPropertyOp7
 70
     1
102
RTVSPropertyOp8
 70
     1
102
RTVSPropertyOp9
 70
     1
102
RTVSPropertyOp10
 70
     1
102
RTVSPropertyOp11
 70
     1
102
RTVSPropertyOp12
 70
     1
102
RTVSPropertyOp13
 70
     1
102
RTVSPropertyOp14
 70
     1
102
RTVSPropertyOp15
 70
     1
102
RTVSPropertyOp16
 70
     1
102
RTVSPropertyOp17
 70
     1
102
RTVSPropertyOp18
 70
     1
102
RTVSPropertyOp19
 70
     1
102
RTVSPropertyOp20
 70
     1
102
RTVSPropertyOp21
 70
     1
102
RTVSPropertyOp22
 70
     1
102
RTVSPropertyOp23
 70
     1
102
RTVSPropertyOp24
 70
     1
102
RTVSPropertyOp25
 70
     1
102
RTVSPropertyOp26
 70
     1
102
RTVSPropertyOp27
 70
     1
102
RTVSPropertyOp28
 70
     1
102
RTVSPropertyOp29
 70
     1
102
RTVSPropertyOp30
 70
     1
102
RTVSPropertyOp31
 70
     1
102
RTVSPropertyOp32
 70
     1
102
RTVSPropertyOp33
 70
     1
102
RTVSPropertyOp34
 70
     1
102
RTVSPropertyOp35
 70
     1
102
RTVSPropertyOp36
 70
     1
102
RTVSPropertyOp37
 70
     1
102
RTVSPropertyOp38
 70
     1
102
RTVSPropertyOp39
 70
     1
102
RTVSPropertyOp40
 70
     1
102
RTVSPropertyOp41
 70
     1
102
RTVSPropertyOp42
 70
     1
102
RTVSPropertyOp43
 70
     1
102
RTVSPropertyOp44
 70
     1
102
RTVSPropertyOp45
 70
     1
102
RTVSPropertyOp46
 70
     1
102
RTVSPropertyOp47
 70
     1
102
RTVSPropertyOp48
 70
     1
102
RTVSPropertyOp49
 70
     1
102
RTVSPropertyOp50
 70
     1
102
RTVSPropertyOp51
 70
     0
102
RTVSPropertyOp52
 70
     0
102
RTVSPropertyOp53
 70
     1
102
RTVSPropertyOp54
 70
     1
102
RTVSPropertyOp55
 70
     1
102
RTVSPropertyOp56
 70
     1
102
RTVSPropertyOp57
 70
     1
102
RTVSPost2010Prop28
280
     0
102
RTVSPost2010PropOp28
 70
     1
102
RTVSPost2010Prop29
280
     1
102
RTVSPost2010PropOp29
 70
     1
102
RTVSPost2010Prop30
280
     1
102
RTVSPost2010PropOp30
 70
     1
102
RTVSPost2010Prop31
280
     0
102
RTVSPost2010PropOp31
 70
     1
102
RTVSPost2010Prop32
280
     0
102
RTVSPost2010PropOp32
 70
     1
102
RTVSPost2010Prop33
280
     0
102
RTVSPost2010PropOp33
 70
     1
102
RTVSPost2010Prop34
280
     0
102
RTVSPost2010PropOp34
 70
     1
102
RTVSPost2010Prop35
280
     0
102
RTVSPost2010PropOp35
 70
     1
102
RTVSPost2010Prop36
280
     0
102
RTVSPost2010PropOp36
 70
     1
102
RTVSPost2010Prop37
 90
       50
102
RTVSPost2010PropOp37
 70
     1
102
RTVSPost2010Prop38
140
0.0
102
RTVSPost2010PropOp38
 70
     1
102
RTVSPost2010Prop39
140
1.0
102
RTVSPost2010PropOp39
 70
     1
102
RTVSPost2010Prop40
 90
        0
102
RTVSPost2010PropOp40
 70
     1
102
RTVSPost2010Prop41ColorIndex
 90
       18
102
RTVSPost2010Prop41ColorRGB
 90
        0
102
RTVSPost2010PropOp41
 70
     1
102
RTVSPost2010Prop42
 90
       50
102
RTVSPost2010PropOp42
 70
     1
102
RTVSPost2010Prop43
 90
        3
102
RTVSPost2010PropOp43
 70
     1
102
RTVSPost2010Prop44ColorIndex
 90
        5
102
RTVSPost2010Prop44ColorRGB
 90
      255
102
RTVSPost2010PropOp44
 70
     1
102
RTVSPost2010Prop45
280
     0
102
RTVSPost2010PropOp45
 70
     1
102
RTVSPost2010Prop46
 90
       50
102
RTVSPost2010PropOp46
 70
     1
102
RTVSPost2010Prop47
 90
       50
102
RTVSPost2010PropOp47
 70
     1
102
RTVSPost2010Prop48
 90
       50
102
RTVSPost2010PropOp48
 70
     1
102
RTVSPost2010Prop49
280
     0
102
RTVSPost2010PropOp49
 70
     1
102
RTVSPost2010Prop50
 90
       50
102
RTVSPost2010PropOp50
 70
     1
102
RTVSPost2010Prop51ColorIndex
 90
      256
102
RTVSPost2010Prop51ColorRGB
 90
-16777216
102
RTVSPost2010PropOp51
 70
     0
102
RTVSPost2010Prop52
140
1.0
102
RTVSPost2010PropOp52
 70
     0
102
RTVSPost2010Prop53
 90
        2
102
RTVSPost2010PropOp53
 70
     1
102
RTVSPost2010Prop54
  1
strokes_ogs.tif
102
RTVSPost2010PropOp54
 70
     1
102
RTVSPost2010Prop55
280
     0
102
RTVSPost2010PropOp55
 70
     1
102
RTVSPost2010Prop56
140
1.0
102
RTVSPost2010PropOp56
 70
     1
102
RTVSPost2010Prop57
140
1.0
102
RTVSPost2010PropOp57
 70
     1
  0
XRECORD
  5
C6D
102
{ACAD_REACTORS
330
C6C
102
}
330
C6C
100
AcDbXrecord
280
     1
102
RTVSPropertyOp0
 70
     1
102
RTVSPropertyOp1
 70
     1
102
RTVSPropertyOp2
 70
     1
102
RTVSPropertyOp3
 70
     1
102
RTVSPropertyOp4
 70
     1
102
RTVSPropertyOp5
 70
     1
102
RTVSPropertyOp6
 70
     1
102
RTVSPropertyOp7
 70
     1
102
RTVSPropertyOp8
 70
     1
102
RTVSPropertyOp9
 70
     1
102
RTVSPropertyOp10
 70
     1
102
RTVSPropertyOp11
 70
     1
102
RTVSPropertyOp12
 70
     1
102
RTVSPropertyOp13
 70
     1
102
RTVSPropertyOp14
 70
     1
102
RTVSPropertyOp15
 70
     1
102
RTVSPropertyOp16
 70
     1
102
RTVSPropertyOp17
 70
     1
102
RTVSPropertyOp18
 70
     1
102
RTVSPropertyOp19
 70
     1
102
RTVSPropertyOp20
 70
     1
102
RTVSPropertyOp21
 70
     1
102
RTVSPropertyOp22
 70
     1
102
RTVSPropertyOp23
 70
     1
102
RTVSPropertyOp24
 70
     1
102
RTVSPropertyOp25
 70
     1
102
RTVSPropertyOp26
 70
     1
102
RTVSPropertyOp27
 70
     1
102
RTVSPropertyOp28
 70
     1
102
RTVSPropertyOp29
 70
     1
102
RTVSPropertyOp30
 70
     1
102
RTVSPropertyOp31
 70
     1
102
RTVSPropertyOp32
 70
     1
102
RTVSPropertyOp33
 70
     1
102
RTVSPropertyOp34
 70
     1
102
RTVSPropertyOp35
 70
     1
102
RTVSPropertyOp36
 70
     1
102
RTVSPropertyOp37
 70
     1
102
RTVSPropertyOp38
 70
     1
102
RTVSPropertyOp39
 70
     1
102
RTVSPropertyOp40
 70
     1
102
RTVSPropertyOp41
 70
     1
102
RTVSPropertyOp42
 70
     1
102
RTVSPropertyOp43
 70
     1
102
RTVSPropertyOp44
 70
     1
102
RTVSPropertyOp45
 70
     1
102
RTVSPropertyOp46
 70
     1
102
RTVSPropertyOp47
 70
     1
102
RTVSPropertyOp48
 70
     1
102
RTVSPropertyOp49
 70
     1
102
RTVSPropertyOp50
 70
     1
102
RTVSPropertyOp51
 70
     0
102
RTVSPropertyOp52
 70
     0
102
RTVSPropertyOp53
 70
     1
102
RTVSPropertyOp54
 70
     1
102
RTVSPropertyOp55
 70
     1
102
RTVSPropertyOp56
 70
     1
102
RTVSPropertyOp57
 70
     1
102
RTVSPost2010Prop28
280
     0
102
RTVSPost2010PropOp28
 70
     1
102
RTVSPost2010Prop29
280
     1
102
RTVSPost2010PropOp29
 70
     1
102
RTVSPost2010Prop30
280
     1
102
RTVSPost2010PropOp30
 70
     1
102
RTVSPost2010Prop31
280
     0
102
RTVSPost2010PropOp31
 70
     1
102
RTVSPost2010Prop32
280
     0
102
RTVSPost2010PropOp32
 70
     1
102
RTVSPost2010Prop33
280
     0
102
RTVSPost2010PropOp33
 70
     1
102
RTVSPost2010Prop34
280
     0
102
RTVSPost2010PropOp34
 70
     1
102
RTVSPost2010Prop35
280
     0
102
RTVSPost2010PropOp35
 70
     1
102
RTVSPost2010Prop36
280
     0
102
RTVSPost2010PropOp36
 70
     1
102
RTVSPost2010Prop37
 90
       50
102
RTVSPost2010PropOp37
 70
     1
102
RTVSPost2010Prop38
140
0.0
102
RTVSPost2010PropOp38
 70
     1
102
RTVSPost2010Prop39
140
1.0
102
RTVSPost2010PropOp39
 70
     1
102
RTVSPost2010Prop40
 90
        0
102
RTVSPost2010PropOp40
 70
     1
102
RTVSPost2010Prop41ColorIndex
 90
       18
102
RTVSPost2010Prop41ColorRGB
 90
        0
102
RTVSPost2010PropOp41
 70
     1
102
RTVSPost2010Prop42
 90
       50
102
RTVSPost2010PropOp42
 70
     1
102
RTVSPost2010Prop43
 90
        3
102
RTVSPost2010PropOp43
 70
     1
102
RTVSPost2010Prop44ColorIndex
 90
        5
102
RTVSPost2010Prop44ColorRGB
 90
      255
102
RTVSPost2010PropOp44
 70
     1
102
RTVSPost2010Prop45
280
     0
102
RTVSPost2010PropOp45
 70
     1
102
RTVSPost2010Prop46
 90
       50
102
RTVSPost2010PropOp46
 70
     1
102
RTVSPost2010Prop47
 90
       50
102
RTVSPost2010PropOp47
 70
     1
102
RTVSPost2010Prop48
 90
       50
102
RTVSPost2010PropOp48
 70
     1
102
RTVSPost2010Prop49
280
     0
102
RTVSPost2010PropOp49
 70
     1
102
RTVSPost2010Prop50
 90
       50
102
RTVSPost2010PropOp50
 70
     1
102
RTVSPost2010Prop51ColorIndex
 90
      256
102
RTVSPost2010Prop51ColorRGB
 90
-16777216
102
RTVSPost2010PropOp51
 70
     0
102
RTVSPost2010Prop52
140
1.0
102
RTVSPost2010PropOp52
 70
     0
102
RTVSPost2010Prop53
 90
        2
102
RTVSPost2010PropOp53
 70
     1
102
RTVSPost2010Prop54
  1
strokes_ogs.tif
102
RTVSPost2010PropOp54
 70
     1
102
RTVSPost2010Prop55
280
     0
102
RTVSPost2010PropOp55
 70
     1
102
RTVSPost2010Prop56
140
1.0
102
RTVSPost2010PropOp56
 70
     1
102
RTVSPost2010Prop57
140
1.0
102
RTVSPost2010PropOp57
 70
     1
  0
XRECORD
  5
C6F
102
{ACAD_REACTORS
330
C6E
102
}
330
C6E
100
AcDbXrecord
280
     1
102
RTVSPropertyOp0
 70
     1
102
RTVSPropertyOp1
 70
     1
102
RTVSPropertyOp2
 70
     1
102
RTVSPropertyOp3
 70
     1
102
RTVSPropertyOp4
 70
     1
102
RTVSPropertyOp5
 70
     1
102
RTVSPropertyOp6
 70
     1
102
RTVSPropertyOp7
 70
     1
102
RTVSPropertyOp8
 70
     1
102
RTVSPropertyOp9
 70
     1
102
RTVSPropertyOp10
 70
     1
102
RTVSPropertyOp11
 70
     1
102
RTVSPropertyOp12
 70
     1
102
RTVSPropertyOp13
 70
     1
102
RTVSPropertyOp14
 70
     1
102
RTVSPropertyOp15
 70
     1
102
RTVSPropertyOp16
 70
     1
102
RTVSPropertyOp17
 70
     1
102
RTVSPropertyOp18
 70
     1
102
RTVSPropertyOp19
 70
     1
102
RTVSPropertyOp20
 70
     1
102
RTVSPropertyOp21
 70
     1
102
RTVSPropertyOp22
 70
     1
102
RTVSPropertyOp23
 70
     1
102
RTVSPropertyOp24
 70
     1
102
RTVSPropertyOp25
 70
     1
102
RTVSPropertyOp26
 70
     1
102
RTVSPropertyOp27
 70
     1
102
RTVSPropertyOp28
 70
     1
102
RTVSPropertyOp29
 70
     1
102
RTVSPropertyOp30
 70
     1
102
RTVSPropertyOp31
 70
     1
102
RTVSPropertyOp32
 70
     1
102
RTVSPropertyOp33
 70
     1
102
RTVSPropertyOp34
 70
     1
102
RTVSPropertyOp35
 70
     1
102
RTVSPropertyOp36
 70
     1
102
RTVSPropertyOp37
 70
     1
102
RTVSPropertyOp38
 70
     1
102
RTVSPropertyOp39
 70
     1
102
RTVSPropertyOp40
 70
     1
102
RTVSPropertyOp41
 70
     1
102
RTVSPropertyOp42
 70
     1
102
RTVSPropertyOp43
 70
     1
102
RTVSPropertyOp44
 70
     1
102
RTVSPropertyOp45
 70
     1
102
RTVSPropertyOp46
 70
     1
102
RTVSPropertyOp47
 70
     1
102
RTVSPropertyOp48
 70
     1
102
RTVSPropertyOp49
 70
     1
102
RTVSPropertyOp50
 70
     1
102
RTVSPropertyOp51
 70
     0
102
RTVSPropertyOp52
 70
     0
102
RTVSPropertyOp53
 70
     1
102
RTVSPropertyOp54
 70
     1
102
RTVSPropertyOp55
 70
     1
102
RTVSPropertyOp56
 70
     1
102
RTVSPropertyOp57
 70
     1
102
RTVSPost2010Prop28
280
     0
102
RTVSPost2010PropOp28
 70
     1
102
RTVSPost2010Prop29
280
     1
102
RTVSPost2010PropOp29
 70
     1
102
RTVSPost2010Prop30
280
     1
102
RTVSPost2010PropOp30
 70
     1
102
RTVSPost2010Prop31
280
     0
102
RTVSPost2010PropOp31
 70
     1
102
RTVSPost2010Prop32
280
     0
102
RTVSPost2010PropOp32
 70
     1
102
RTVSPost2010Prop33
280
     0
102
RTVSPost2010PropOp33
 70
     1
102
RTVSPost2010Prop34
280
     0
102
RTVSPost2010PropOp34
 70
     1
102
RTVSPost2010Prop35
280
     0
102
RTVSPost2010PropOp35
 70
     1
102
RTVSPost2010Prop36
280
     0
102
RTVSPost2010PropOp36
 70
     1
102
RTVSPost2010Prop37
 90
       50
102
RTVSPost2010PropOp37
 70
     1
102
RTVSPost2010Prop38
140
0.0
102
RTVSPost2010PropOp38
 70
     1
102
RTVSPost2010Prop39
140
1.0
102
RTVSPost2010PropOp39
 70
     1
102
RTVSPost2010Prop40
 90
        0
102
RTVSPost2010PropOp40
 70
     1
102
RTVSPost2010Prop41ColorIndex
 90
       18
102
RTVSPost2010Prop41ColorRGB
 90
        0
102
RTVSPost2010PropOp41
 70
     1
102
RTVSPost2010Prop42
 90
       50
102
RTVSPost2010PropOp42
 70
     1
102
RTVSPost2010Prop43
 90
        3
102
RTVSPost2010PropOp43
 70
     1
102
RTVSPost2010Prop44ColorIndex
 90
        5
102
RTVSPost2010Prop44ColorRGB
 90
      255
102
RTVSPost2010PropOp44
 70
     1
102
RTVSPost2010Prop45
280
     0
102
RTVSPost2010PropOp45
 70
     1
102
RTVSPost2010Prop46
 90
       50
102
RTVSPost2010PropOp46
 70
     1
102
RTVSPost2010Prop47
 90
       50
102
RTVSPost2010PropOp47
 70
     1
102
RTVSPost2010Prop48
 90
       50
102
RTVSPost2010PropOp48
 70
     1
102
RTVSPost2010Prop49
280
     0
102
RTVSPost2010PropOp49
 70
     1
102
RTVSPost2010Prop50
 90
       50
102
RTVSPost2010PropOp50
 70
     1
102
RTVSPost2010Prop51ColorIndex
 90
      256
102
RTVSPost2010Prop51ColorRGB
 90
-16777216
102
RTVSPost2010PropOp51
 70
     0
102
RTVSPost2010Prop52
140
1.0
102
RTVSPost2010PropOp52
 70
     0
102
RTVSPost2010Prop53
 90
        2
102
RTVSPost2010PropOp53
 70
     1
102
RTVSPost2010Prop54
  1
strokes_ogs.tif
102
RTVSPost2010PropOp54
 70
     1
102
RTVSPost2010Prop55
280
     0
102
RTVSPost2010PropOp55
 70
     1
102
RTVSPost2010Prop56
140
1.0
102
RTVSPost2010PropOp56
 70
     1
102
RTVSPost2010Prop57
140
1.0
102
RTVSPost2010PropOp57
 70
     1
  0
XRECORD
  5
C75
102
{ACAD_REACTORS
330
C74
102
}
330
C74
100
AcDbXrecord
280
     1
102
RTVSPropertyOp0
 70
     1
102
RTVSPropertyOp1
 70
     1
102
RTVSPropertyOp2
 70
     1
102
RTVSPropertyOp3
 70
     1
102
RTVSPropertyOp4
 70
     1
102
RTVSPropertyOp5
 70
     1
102
RTVSPropertyOp6
 70
     1
102
RTVSPropertyOp7
 70
     1
102
RTVSPropertyOp8
 70
     1
102
RTVSPropertyOp9
 70
     1
102
RTVSPropertyOp10
 70
     1
102
RTVSPropertyOp11
 70
     1
102
RTVSPropertyOp12
 70
     1
102
RTVSPropertyOp13
 70
     1
102
RTVSPropertyOp14
 70
     1
102
RTVSPropertyOp15
 70
     1
102
RTVSPropertyOp16
 70
     1
102
RTVSPropertyOp17
 70
     1
102
RTVSPropertyOp18
 70
     1
102
RTVSPropertyOp19
 70
     1
102
RTVSPropertyOp20
 70
     1
102
RTVSPropertyOp21
 70
     1
102
RTVSPropertyOp22
 70
     1
102
RTVSPropertyOp23
 70
     1
102
RTVSPropertyOp24
 70
     1
102
RTVSPropertyOp25
 70
     1
102
RTVSPropertyOp26
 70
     1
102
RTVSPropertyOp27
 70
     1
102
RTVSPropertyOp28
 70
     1
102
RTVSPropertyOp29
 70
     1
102
RTVSPropertyOp30
 70
     1
102
RTVSPropertyOp31
 70
     1
102
RTVSPropertyOp32
 70
     1
102
RTVSPropertyOp33
 70
     1
102
RTVSPropertyOp34
 70
     1
102
RTVSPropertyOp35
 70
     1
102
RTVSPropertyOp36
 70
     1
102
RTVSPropertyOp37
 70
     1
102
RTVSPropertyOp38
 70
     1
102
RTVSPropertyOp39
 70
     1
102
RTVSPropertyOp40
 70
     1
102
RTVSPropertyOp41
 70
     1
102
RTVSPropertyOp42
 70
     1
102
RTVSPropertyOp43
 70
     1
102
RTVSPropertyOp44
 70
     1
102
RTVSPropertyOp45
 70
     1
102
RTVSPropertyOp46
 70
     1
102
RTVSPropertyOp47
 70
     1
102
RTVSPropertyOp48
 70
     1
102
RTVSPropertyOp49
 70
     1
102
RTVSPropertyOp50
 70
     1
102
RTVSPropertyOp51
 70
     0
102
RTVSPropertyOp52
 70
     0
102
RTVSPropertyOp53
 70
     1
102
RTVSPropertyOp54
 70
     1
102
RTVSPropertyOp55
 70
     1
102
RTVSPropertyOp56
 70
     1
102
RTVSPropertyOp57
 70
     1
102
RTVSPost2010Prop28
280
     0
102
RTVSPost2010PropOp28
 70
     1
102
RTVSPost2010Prop29
280
     1
102
RTVSPost2010PropOp29
 70
     1
102
RTVSPost2010Prop30
280
     1
102
RTVSPost2010PropOp30
 70
     1
102
RTVSPost2010Prop31
280
     0
102
RTVSPost2010PropOp31
 70
     1
102
RTVSPost2010Prop32
280
     0
102
RTVSPost2010PropOp32
 70
     1
102
RTVSPost2010Prop33
280
     0
102
RTVSPost2010PropOp33
 70
     1
102
RTVSPost2010Prop34
280
     0
102
RTVSPost2010PropOp34
 70
     1
102
RTVSPost2010Prop35
280
     0
102
RTVSPost2010PropOp35
 70
     1
102
RTVSPost2010Prop36
280
     0
102
RTVSPost2010PropOp36
 70
     1
102
RTVSPost2010Prop37
 90
       50
102
RTVSPost2010PropOp37
 70
     1
102
RTVSPost2010Prop38
140
0.0
102
RTVSPost2010PropOp38
 70
     1
102
RTVSPost2010Prop39
140
1.0
102
RTVSPost2010PropOp39
 70
     1
102
RTVSPost2010Prop40
 90
        0
102
RTVSPost2010PropOp40
 70
     1
102
RTVSPost2010Prop41ColorIndex
 90
       18
102
RTVSPost2010Prop41ColorRGB
 90
        0
102
RTVSPost2010PropOp41
 70
     1
102
RTVSPost2010Prop42
 90
       50
102
RTVSPost2010PropOp42
 70
     1
102
RTVSPost2010Prop43
 90
        3
102
RTVSPost2010PropOp43
 70
     1
102
RTVSPost2010Prop44ColorIndex
 90
        5
102
RTVSPost2010Prop44ColorRGB
 90
      255
102
RTVSPost2010PropOp44
 70
     1
102
RTVSPost2010Prop45
280
     0
102
RTVSPost2010PropOp45
 70
     1
102
RTVSPost2010Prop46
 90
       50
102
RTVSPost2010PropOp46
 70
     1
102
RTVSPost2010Prop47
 90
       50
102
RTVSPost2010PropOp47
 70
     1
102
RTVSPost2010Prop48
 90
       50
102
RTVSPost2010PropOp48
 70
     1
102
RTVSPost2010Prop49
280
     0
102
RTVSPost2010PropOp49
 70
     1
102
RTVSPost2010Prop50
 90
       50
102
RTVSPost2010PropOp50
 70
     1
102
RTVSPost2010Prop51ColorIndex
 90
      256
102
RTVSPost2010Prop51ColorRGB
 90
-16777216
102
RTVSPost2010PropOp51
 70
     0
102
RTVSPost2010Prop52
140
1.0
102
RTVSPost2010PropOp52
 70
     0
102
RTVSPost2010Prop53
 90
        2
102
RTVSPost2010PropOp53
 70
     1
102
RTVSPost2010Prop54
  1
strokes_ogs.tif
102
RTVSPost2010PropOp54
 70
     1
102
RTVSPost2010Prop55
280
     0
102
RTVSPost2010PropOp55
 70
     1
102
RTVSPost2010Prop56
140
1.0
102
RTVSPost2010PropOp56
 70
     1
102
RTVSPost2010Prop57
140
1.0
102
RTVSPost2010PropOp57
 70
     1
  0
XRECORD
  5
C89
102
{ACAD_REACTORS
330
C88
102
}
330
C88
100
AcDbXrecord
280
     1
102
RTVSPropertyOp0
 70
     0
102
RTVSPropertyOp1
 70
     0
102
RTVSPropertyOp2
 70
     0
102
RTVSPropertyOp3
 70
     0
102
RTVSPropertyOp4
 70
     0
102
RTVSPropertyOp5
 70
     0
102
RTVSPropertyOp6
 70
     0
102
RTVSPropertyOp7
 70
     0
102
RTVSPropertyOp8
 70
     0
102
RTVSPropertyOp9
 70
     0
102
RTVSPropertyOp10
 70
     0
102
RTVSPropertyOp11
 70
     0
102
RTVSPropertyOp12
 70
     0
102
RTVSPropertyOp13
 70
     0
102
RTVSPropertyOp14
 70
     2
102
RTVSPropertyOp15
 70
     0
102
RTVSPropertyOp16
 70
     0
102
RTVSPropertyOp17
 70
     0
102
RTVSPropertyOp18
 70
     0
102
RTVSPropertyOp19
 70
     0
102
RTVSPropertyOp20
 70
     0
102
RTVSPropertyOp21
 70
     0
102
RTVSPropertyOp22
 70
     0
102
RTVSPropertyOp23
 70
     0
102
RTVSPropertyOp24
 70
     0
102
RTVSPropertyOp25
 70
     0
102
RTVSPropertyOp26
 70
     0
102
RTVSPropertyOp27
 70
     0
102
RTVSPropertyOp28
 70
     0
102
RTVSPropertyOp29
 70
     0
102
RTVSPropertyOp30
 70
     0
102
RTVSPropertyOp31
 70
     0
102
RTVSPropertyOp32
 70
     0
102
RTVSPropertyOp33
 70
     0
102
RTVSPropertyOp34
 70
     0
102
RTVSPropertyOp35
 70
     0
102
RTVSPropertyOp36
 70
     0
102
RTVSPropertyOp37
 70
     0
102
RTVSPropertyOp38
 70
     0
102
RTVSPropertyOp39
 70
     0
102
RTVSPropertyOp40
 70
     0
102
RTVSPropertyOp41
 70
     0
102
RTVSPropertyOp42
 70
     0
102
RTVSPropertyOp43
 70
     0
102
RTVSPropertyOp44
 70
     0
102
RTVSPropertyOp45
 70
     0
102
RTVSPropertyOp46
 70
     0
102
RTVSPropertyOp47
 70
     0
102
RTVSPropertyOp48
 70
     0
102
RTVSPropertyOp49
 70
     0
102
RTVSPropertyOp50
 70
     0
102
RTVSPropertyOp51
 70
     0
102
RTVSPropertyOp52
 70
     0
102
RTVSPropertyOp53
 70
     0
102
RTVSPropertyOp54
 70
     0
102
RTVSPropertyOp55
 70
     0
102
RTVSPropertyOp56
 70
     0
102
RTVSPropertyOp57
 70
     0
102
RTVSPost2010Prop28
280
     0
102
RTVSPost2010PropOp28
 70
     0
102
RTVSPost2010Prop29
280
     1
102
RTVSPost2010PropOp29
 70
     0
102
RTVSPost2010Prop30
280
     1
102
RTVSPost2010PropOp30
 70
     0
102
RTVSPost2010Prop31
280
     0
102
RTVSPost2010PropOp31
 70
     0
102
RTVSPost2010Prop32
280
     0
102
RTVSPost2010PropOp32
 70
     0
102
RTVSPost2010Prop33
280
     0
102
RTVSPost2010PropOp33
 70
     0
102
RTVSPost2010Prop34
280
     0
102
RTVSPost2010PropOp34
 70
     0
102
RTVSPost2010Prop35
280
     0
102
RTVSPost2010PropOp35
 70
     0
102
RTVSPost2010Prop36
280
     0
102
RTVSPost2010PropOp36
 70
     0
102
RTVSPost2010Prop37
 90
       50
102
RTVSPost2010PropOp37
 70
     0
102
RTVSPost2010Prop38
140
0.0
102
RTVSPost2010PropOp38
 70
     0
102
RTVSPost2010Prop39
140
1.0
102
RTVSPost2010PropOp39
 70
     0
102
RTVSPost2010Prop40
 90
        0
102
RTVSPost2010PropOp40
 70
     0
102
RTVSPost2010Prop41ColorIndex
 90
       18
102
RTVSPost2010Prop41ColorRGB
 90
        0
102
RTVSPost2010PropOp41
 70
     0
102
RTVSPost2010Prop42
 90
       50
102
RTVSPost2010PropOp42
 70
     0
102
RTVSPost2010Prop43
 90
        3
102
RTVSPost2010PropOp43
 70
     0
102
RTVSPost2010Prop44ColorIndex
 90
        5
102
RTVSPost2010Prop44ColorRGB
 90
      255
102
RTVSPost2010PropOp44
 70
     0
102
RTVSPost2010Prop45
280
     0
102
RTVSPost2010PropOp45
 70
     0
102
RTVSPost2010Prop46
 90
       50
102
RTVSPost2010PropOp46
 70
     0
102
RTVSPost2010Prop47
 90
       50
102
RTVSPost2010PropOp47
 70
     0
102
RTVSPost2010Prop48
 90
       50
102
RTVSPost2010PropOp48
 70
     0
102
RTVSPost2010Prop49
280
     0
102
RTVSPost2010PropOp49
 70
     0
102
RTVSPost2010Prop50
 90
       50
102
RTVSPost2010PropOp50
 70
     0
102
RTVSPost2010Prop51ColorIndex
 90
      256
102
RTVSPost2010Prop51ColorRGB
 90
-16777216
102
RTVSPost2010PropOp51
 70
     0
102
RTVSPost2010Prop52
140
1.0
102
RTVSPost2010PropOp52
 70
     0
102
RTVSPost2010Prop53
 90
        2
102
RTVSPost2010PropOp53
 70
     0
102
RTVSPost2010Prop54
  1
strokes_ogs.tif
102
RTVSPost2010PropOp54
 70
     0
102
RTVSPost2010Prop55
280
     0
102
RTVSPost2010PropOp55
 70
     0
102
RTVSPost2010Prop56
140
1.0
102
RTVSPost2010PropOp56
 70
     0
102
RTVSPost2010Prop57
140
1.0
102
RTVSPost2010PropOp57
 70
     0
  0
XRECORD
  5
C83
102
{ACAD_REACTORS
330
C82
102
}
330
C82
100
AcDbXrecord
280
     1
102
RTVSPropertyOp0
 70
     1
102
RTVSPropertyOp1
 70
     1
102
RTVSPropertyOp2
 70
     1
102
RTVSPropertyOp3
 70
     1
102
RTVSPropertyOp4
 70
     1
102
RTVSPropertyOp5
 70
     1
102
RTVSPropertyOp6
 70
     1
102
RTVSPropertyOp7
 70
     1
102
RTVSPropertyOp8
 70
     1
102
RTVSPropertyOp9
 70
     1
102
RTVSPropertyOp10
 70
     1
102
RTVSPropertyOp11
 70
     1
102
RTVSPropertyOp12
 70
     1
102
RTVSPropertyOp13
 70
     1
102
RTVSPropertyOp14
 70
     1
102
RTVSPropertyOp15
 70
     1
102
RTVSPropertyOp16
 70
     1
102
RTVSPropertyOp17
 70
     1
102
RTVSPropertyOp18
 70
     1
102
RTVSPropertyOp19
 70
     1
102
RTVSPropertyOp20
 70
     1
102
RTVSPropertyOp21
 70
     1
102
RTVSPropertyOp22
 70
     1
102
RTVSPropertyOp23
 70
     1
102
RTVSPropertyOp24
 70
     1
102
RTVSPropertyOp25
 70
     1
102
RTVSPropertyOp26
 70
     1
102
RTVSPropertyOp27
 70
     1
102
RTVSPropertyOp28
 70
     1
102
RTVSPropertyOp29
 70
     1
102
RTVSPropertyOp30
 70
     1
102
RTVSPropertyOp31
 70
     1
102
RTVSPropertyOp32
 70
     1
102
RTVSPropertyOp33
 70
     1
102
RTVSPropertyOp34
 70
     1
102
RTVSPropertyOp35
 70
     1
102
RTVSPropertyOp36
 70
     1
102
RTVSPropertyOp37
 70
     1
102
RTVSPropertyOp38
 70
     1
102
RTVSPropertyOp39
 70
     1
102
RTVSPropertyOp40
 70
     1
102
RTVSPropertyOp41
 70
     1
102
RTVSPropertyOp42
 70
     1
102
RTVSPropertyOp43
 70
     1
102
RTVSPropertyOp44
 70
     1
102
RTVSPropertyOp45
 70
     1
102
RTVSPropertyOp46
 70
     1
102
RTVSPropertyOp47
 70
     1
102
RTVSPropertyOp48
 70
     1
102
RTVSPropertyOp49
 70
     1
102
RTVSPropertyOp50
 70
     1
102
RTVSPropertyOp51
 70
     0
102
RTVSPropertyOp52
 70
     0
102
RTVSPropertyOp53
 70
     1
102
RTVSPropertyOp54
 70
     1
102
RTVSPropertyOp55
 70
     1
102
RTVSPropertyOp56
 70
     1
102
RTVSPropertyOp57
 70
     1
102
RTVSPost2010Prop28
280
     0
102
RTVSPost2010PropOp28
 70
     1
102
RTVSPost2010Prop29
280
     1
102
RTVSPost2010PropOp29
 70
     1
102
RTVSPost2010Prop30
280
     1
102
RTVSPost2010PropOp30
 70
     1
102
RTVSPost2010Prop31
280
     0
102
RTVSPost2010PropOp31
 70
     1
102
RTVSPost2010Prop32
280
     0
102
RTVSPost2010PropOp32
 70
     1
102
RTVSPost2010Prop33
280
     0
102
RTVSPost2010PropOp33
 70
     1
102
RTVSPost2010Prop34
280
     0
102
RTVSPost2010PropOp34
 70
     1
102
RTVSPost2010Prop35
280
     0
102
RTVSPost2010PropOp35
 70
     1
102
RTVSPost2010Prop36
280
     0
102
RTVSPost2010PropOp36
 70
     1
102
RTVSPost2010Prop37
 90
       50
102
RTVSPost2010PropOp37
 70
     1
102
RTVSPost2010Prop38
140
0.0
102
RTVSPost2010PropOp38
 70
     1
102
RTVSPost2010Prop39
140
1.0
102
RTVSPost2010PropOp39
 70
     1
102
RTVSPost2010Prop40
 90
        0
102
RTVSPost2010PropOp40
 70
     1
102
RTVSPost2010Prop41ColorIndex
 90
       18
102
RTVSPost2010Prop41ColorRGB
 90
        0
102
RTVSPost2010PropOp41
 70
     1
102
RTVSPost2010Prop42
 90
       50
102
RTVSPost2010PropOp42
 70
     1
102
RTVSPost2010Prop43
 90
        3
102
RTVSPost2010PropOp43
 70
     1
102
RTVSPost2010Prop44ColorIndex
 90
        5
102
RTVSPost2010Prop44ColorRGB
 90
      255
102
RTVSPost2010PropOp44
 70
     1
102
RTVSPost2010Prop45
280
     0
102
RTVSPost2010PropOp45
 70
     1
102
RTVSPost2010Prop46
 90
       50
102
RTVSPost2010PropOp46
 70
     1
102
RTVSPost2010Prop47
 90
       50
102
RTVSPost2010PropOp47
 70
     1
102
RTVSPost2010Prop48
 90
       50
102
RTVSPost2010PropOp48
 70
     1
102
RTVSPost2010Prop49
280
     0
102
RTVSPost2010PropOp49
 70
     1
102
RTVSPost2010Prop50
 90
       50
102
RTVSPost2010PropOp50
 70
     1
102
RTVSPost2010Prop51ColorIndex
 90
      256
102
RTVSPost2010Prop51ColorRGB
 90
-16777216
102
RTVSPost2010PropOp51
 70
     0
102
RTVSPost2010Prop52
140
1.0
102
RTVSPost2010PropOp52
 70
     0
102
RTVSPost2010Prop53
 90
        2
102
RTVSPost2010PropOp53
 70
     1
102
RTVSPost2010Prop54
  1
strokes_ogs.tif
102
RTVSPost2010PropOp54
 70
     1
102
RTVSPost2010Prop55
280
     0
102
RTVSPost2010PropOp55
 70
     1
102
RTVSPost2010Prop56
140
1.0
102
RTVSPost2010PropOp56
 70
     1
102
RTVSPost2010Prop57
140
1.0
102
RTVSPost2010PropOp57
 70
     1
  0
XRECORD
  5
C8B
102
{ACAD_REACTORS
330
C8A
102
}
330
C8A
100
AcDbXrecord
280
     1
102
RTVSPropertyOp0
 70
     0
102
RTVSPropertyOp1
 70
     0
102
RTVSPropertyOp2
 70
     0
102
RTVSPropertyOp3
 70
     0
102
RTVSPropertyOp4
 70
     0
102
RTVSPropertyOp5
 70
     0
102
RTVSPropertyOp6
 70
     0
102
RTVSPropertyOp7
 70
     0
102
RTVSPropertyOp8
 70
     0
102
RTVSPropertyOp9
 70
     0
102
RTVSPropertyOp10
 70
     0
102
RTVSPropertyOp11
 70
     0
102
RTVSPropertyOp12
 70
     0
102
RTVSPropertyOp13
 70
     0
102
RTVSPropertyOp14
 70
     2
102
RTVSPropertyOp15
 70
     0
102
RTVSPropertyOp16
 70
     0
102
RTVSPropertyOp17
 70
     0
102
RTVSPropertyOp18
 70
     0
102
RTVSPropertyOp19
 70
     0
102
RTVSPropertyOp20
 70
     0
102
RTVSPropertyOp21
 70
     0
102
RTVSPropertyOp22
 70
     0
102
RTVSPropertyOp23
 70
     0
102
RTVSPropertyOp24
 70
     0
102
RTVSPropertyOp25
 70
     0
102
RTVSPropertyOp26
 70
     0
102
RTVSPropertyOp27
 70
     0
102
RTVSPropertyOp28
 70
     0
102
RTVSPropertyOp29
 70
     0
102
RTVSPropertyOp30
 70
     0
102
RTVSPropertyOp31
 70
     0
102
RTVSPropertyOp32
 70
     0
102
RTVSPropertyOp33
 70
     0
102
RTVSPropertyOp34
 70
     0
102
RTVSPropertyOp35
 70
     0
102
RTVSPropertyOp36
 70
     0
102
RTVSPropertyOp37
 70
     0
102
RTVSPropertyOp38
 70
     0
102
RTVSPropertyOp39
 70
     0
102
RTVSPropertyOp40
 70
     0
102
RTVSPropertyOp41
 70
     0
102
RTVSPropertyOp42
 70
     0
102
RTVSPropertyOp43
 70
     0
102
RTVSPropertyOp44
 70
     0
102
RTVSPropertyOp45
 70
     0
102
RTVSPropertyOp46
 70
     0
102
RTVSPropertyOp47
 70
     0
102
RTVSPropertyOp48
 70
     0
102
RTVSPropertyOp49
 70
     0
102
RTVSPropertyOp50
 70
     0
102
RTVSPropertyOp51
 70
     0
102
RTVSPropertyOp52
 70
     0
102
RTVSPropertyOp53
 70
     0
102
RTVSPropertyOp54
 70
     0
102
RTVSPropertyOp55
 70
     0
102
RTVSPropertyOp56
 70
     0
102
RTVSPropertyOp57
 70
     0
102
RTVSPost2010Prop28
280
     0
102
RTVSPost2010PropOp28
 70
     0
102
RTVSPost2010Prop29
280
     1
102
RTVSPost2010PropOp29
 70
     0
102
RTVSPost2010Prop30
280
     1
102
RTVSPost2010PropOp30
 70
     0
102
RTVSPost2010Prop31
280
     0
102
RTVSPost2010PropOp31
 70
     0
102
RTVSPost2010Prop32
280
     0
102
RTVSPost2010PropOp32
 70
     0
102
RTVSPost2010Prop33
280
     0
102
RTVSPost2010PropOp33
 70
     0
102
RTVSPost2010Prop34
280
     0
102
RTVSPost2010PropOp34
 70
     0
102
RTVSPost2010Prop35
280
     0
102
RTVSPost2010PropOp35
 70
     0
102
RTVSPost2010Prop36
280
     0
102
RTVSPost2010PropOp36
 70
     0
102
RTVSPost2010Prop37
 90
       50
102
RTVSPost2010PropOp37
 70
     0
102
RTVSPost2010Prop38
140
0.0
102
RTVSPost2010PropOp38
 70
     0
102
RTVSPost2010Prop39
140
1.0
102
RTVSPost2010PropOp39
 70
     0
102
RTVSPost2010Prop40
 90
        0
102
RTVSPost2010PropOp40
 70
     0
102
RTVSPost2010Prop41ColorIndex
 90
       18
102
RTVSPost2010Prop41ColorRGB
 90
        0
102
RTVSPost2010PropOp41
 70
     0
102
RTVSPost2010Prop42
 90
       50
102
RTVSPost2010PropOp42
 70
     0
102
RTVSPost2010Prop43
 90
        3
102
RTVSPost2010PropOp43
 70
     0
102
RTVSPost2010Prop44ColorIndex
 90
        5
102
RTVSPost2010Prop44ColorRGB
 90
      255
102
RTVSPost2010PropOp44
 70
     0
102
RTVSPost2010Prop45
280
     0
102
RTVSPost2010PropOp45
 70
     0
102
RTVSPost2010Prop46
 90
       50
102
RTVSPost2010PropOp46
 70
     0
102
RTVSPost2010Prop47
 90
       50
102
RTVSPost2010PropOp47
 70
     0
102
RTVSPost2010Prop48
 90
       50
102
RTVSPost2010PropOp48
 70
     0
102
RTVSPost2010Prop49
280
     0
102
RTVSPost2010PropOp49
 70
     0
102
RTVSPost2010Prop50
 90
       50
102
RTVSPost2010PropOp50
 70
     0
102
RTVSPost2010Prop51ColorIndex
 90
      256
102
RTVSPost2010Prop51ColorRGB
 90
-16777216
102
RTVSPost2010PropOp51
 70
     0
102
RTVSPost2010Prop52
140
1.0
102
RTVSPost2010PropOp52
 70
     0
102
RTVSPost2010Prop53
 90
        2
102
RTVSPost2010PropOp53
 70
     0
102
RTVSPost2010Prop54
  1
strokes_ogs.tif
102
RTVSPost2010PropOp54
 70
     0
102
RTVSPost2010Prop55
280
     0
102
RTVSPost2010PropOp55
 70
     0
102
RTVSPost2010Prop56
140
1.0
102
RTVSPost2010PropOp56
 70
     0
102
RTVSPost2010Prop57
140
1.0
102
RTVSPost2010PropOp57
 70
     0
  0
XRECORD
  5
C79
102
{ACAD_REACTORS
330
C78
102
}
330
C78
100
AcDbXrecord
280
     1
102
RTVSPropertyOp0
 70
     1
102
RTVSPropertyOp1
 70
     1
102
RTVSPropertyOp2
 70
     1
102
RTVSPropertyOp3
 70
     1
102
RTVSPropertyOp4
 70
     1
102
RTVSPropertyOp5
 70
     1
102
RTVSPropertyOp6
 70
     1
102
RTVSPropertyOp7
 70
     1
102
RTVSPropertyOp8
 70
     1
102
RTVSPropertyOp9
 70
     1
102
RTVSPropertyOp10
 70
     1
102
RTVSPropertyOp11
 70
     1
102
RTVSPropertyOp12
 70
     1
102
RTVSPropertyOp13
 70
     1
102
RTVSPropertyOp14
 70
     1
102
RTVSPropertyOp15
 70
     1
102
RTVSPropertyOp16
 70
     1
102
RTVSPropertyOp17
 70
     1
102
RTVSPropertyOp18
 70
     1
102
RTVSPropertyOp19
 70
     1
102
RTVSPropertyOp20
 70
     1
102
RTVSPropertyOp21
 70
     1
102
RTVSPropertyOp22
 70
     1
102
RTVSPropertyOp23
 70
     1
102
RTVSPropertyOp24
 70
     1
102
RTVSPropertyOp25
 70
     1
102
RTVSPropertyOp26
 70
     1
102
RTVSPropertyOp27
 70
     1
102
RTVSPropertyOp28
 70
     1
102
RTVSPropertyOp29
 70
     1
102
RTVSPropertyOp30
 70
     1
102
RTVSPropertyOp31
 70
     1
102
RTVSPropertyOp32
 70
     1
102
RTVSPropertyOp33
 70
     1
102
RTVSPropertyOp34
 70
     1
102
RTVSPropertyOp35
 70
     1
102
RTVSPropertyOp36
 70
     1
102
RTVSPropertyOp37
 70
     1
102
RTVSPropertyOp38
 70
     1
102
RTVSPropertyOp39
 70
     1
102
RTVSPropertyOp40
 70
     1
102
RTVSPropertyOp41
 70
     1
102
RTVSPropertyOp42
 70
     1
102
RTVSPropertyOp43
 70
     1
102
RTVSPropertyOp44
 70
     1
102
RTVSPropertyOp45
 70
     1
102
RTVSPropertyOp46
 70
     1
102
RTVSPropertyOp47
 70
     1
102
RTVSPropertyOp48
 70
     1
102
RTVSPropertyOp49
 70
     1
102
RTVSPropertyOp50
 70
     1
102
RTVSPropertyOp51
 70
     0
102
RTVSPropertyOp52
 70
     0
102
RTVSPropertyOp53
 70
     1
102
RTVSPropertyOp54
 70
     1
102
RTVSPropertyOp55
 70
     1
102
RTVSPropertyOp56
 70
     1
102
RTVSPropertyOp57
 70
     1
102
RTVSPost2010Prop28
280
     0
102
RTVSPost2010PropOp28
 70
     1
102
RTVSPost2010Prop29
280
     1
102
RTVSPost2010PropOp29
 70
     1
102
RTVSPost2010Prop30
280
     1
102
RTVSPost2010PropOp30
 70
     1
102
RTVSPost2010Prop31
280
     0
102
RTVSPost2010PropOp31
 70
     1
102
RTVSPost2010Prop32
280
     0
102
RTVSPost2010PropOp32
 70
     1
102
RTVSPost2010Prop33
280
     0
102
RTVSPost2010PropOp33
 70
     1
102
RTVSPost2010Prop34
280
     0
102
RTVSPost2010PropOp34
 70
     1
102
RTVSPost2010Prop35
280
     0
102
RTVSPost2010PropOp35
 70
     1
102
RTVSPost2010Prop36
280
     0
102
RTVSPost2010PropOp36
 70
     1
102
RTVSPost2010Prop37
 90
       50
102
RTVSPost2010PropOp37
 70
     1
102
RTVSPost2010Prop38
140
0.0
102
RTVSPost2010PropOp38
 70
     1
102
RTVSPost2010Prop39
140
1.0
102
RTVSPost2010PropOp39
 70
     1
102
RTVSPost2010Prop40
 90
        0
102
RTVSPost2010PropOp40
 70
     1
102
RTVSPost2010Prop41ColorIndex
 90
       18
102
RTVSPost2010Prop41ColorRGB
 90
        0
102
RTVSPost2010PropOp41
 70
     1
102
RTVSPost2010Prop42
 90
       50
102
RTVSPost2010PropOp42
 70
     1
102
RTVSPost2010Prop43
 90
        3
102
RTVSPost2010PropOp43
 70
     1
102
RTVSPost2010Prop44ColorIndex
 90
        5
102
RTVSPost2010Prop44ColorRGB
 90
      255
102
RTVSPost2010PropOp44
 70
     1
102
RTVSPost2010Prop45
280
     0
102
RTVSPost2010PropOp45
 70
     1
102
RTVSPost2010Prop46
 90
       50
102
RTVSPost2010PropOp46
 70
     1
102
RTVSPost2010Prop47
 90
       50
102
RTVSPost2010PropOp47
 70
     1
102
RTVSPost2010Prop48
 90
       50
102
RTVSPost2010PropOp48
 70
     1
102
RTVSPost2010Prop49
280
     0
102
RTVSPost2010PropOp49
 70
     1
102
RTVSPost2010Prop50
 90
       50
102
RTVSPost2010PropOp50
 70
     1
102
RTVSPost2010Prop51ColorIndex
 90
      256
102
RTVSPost2010Prop51ColorRGB
 90
-16777216
102
RTVSPost2010PropOp51
 70
     0
102
RTVSPost2010Prop52
140
1.0
102
RTVSPost2010PropOp52
 70
     0
102
RTVSPost2010Prop53
 90
        2
102
RTVSPost2010PropOp53
 70
     1
102
RTVSPost2010Prop54
  1
strokes_ogs.tif
102
RTVSPost2010PropOp54
 70
     1
102
RTVSPost2010Prop55
280
     0
102
RTVSPost2010PropOp55
 70
     1
102
RTVSPost2010Prop56
140
1.0
102
RTVSPost2010PropOp56
 70
     1
102
RTVSPost2010Prop57
140
1.0
102
RTVSPost2010PropOp57
 70
     1
  0
XRECORD
  5
C97
102
{ACAD_REACTORS
330
C96
102
}
330
C96
100
AcDbXrecord
280
     1
102
RTVSPropertyOp0
 70
     1
102
RTVSPropertyOp1
 70
     1
102
RTVSPropertyOp2
 70
     1
102
RTVSPropertyOp3
 70
     1
102
RTVSPropertyOp4
 70
     1
102
RTVSPropertyOp5
 70
     1
102
RTVSPropertyOp6
 70
     1
102
RTVSPropertyOp7
 70
     1
102
RTVSPropertyOp8
 70
     1
102
RTVSPropertyOp9
 70
     1
102
RTVSPropertyOp10
 70
     1
102
RTVSPropertyOp11
 70
     1
102
RTVSPropertyOp12
 70
     1
102
RTVSPropertyOp13
 70
     1
102
RTVSPropertyOp14
 70
     1
102
RTVSPropertyOp15
 70
     1
102
RTVSPropertyOp16
 70
     1
102
RTVSPropertyOp17
 70
     1
102
RTVSPropertyOp18
 70
     1
102
RTVSPropertyOp19
 70
     1
102
RTVSPropertyOp20
 70
     1
102
RTVSPropertyOp21
 70
     1
102
RTVSPropertyOp22
 70
     1
102
RTVSPropertyOp23
 70
     1
102
RTVSPropertyOp24
 70
     1
102
RTVSPropertyOp25
 70
     1
102
RTVSPropertyOp26
 70
     1
102
RTVSPropertyOp27
 70
     1
102
RTVSPropertyOp28
 70
     1
102
RTVSPropertyOp29
 70
     1
102
RTVSPropertyOp30
 70
     1
102
RTVSPropertyOp31
 70
     1
102
RTVSPropertyOp32
 70
     1
102
RTVSPropertyOp33
 70
     1
102
RTVSPropertyOp34
 70
     1
102
RTVSPropertyOp35
 70
     1
102
RTVSPropertyOp36
 70
     1
102
RTVSPropertyOp37
 70
     1
102
RTVSPropertyOp38
 70
     1
102
RTVSPropertyOp39
 70
     1
102
RTVSPropertyOp40
 70
     1
102
RTVSPropertyOp41
 70
     1
102
RTVSPropertyOp42
 70
     1
102
RTVSPropertyOp43
 70
     1
102
RTVSPropertyOp44
 70
     1
102
RTVSPropertyOp45
 70
     1
102
RTVSPropertyOp46
 70
     1
102
RTVSPropertyOp47
 70
     1
102
RTVSPropertyOp48
 70
     1
102
RTVSPropertyOp49
 70
     1
102
RTVSPropertyOp50
 70
     1
102
RTVSPropertyOp51
 70
     0
102
RTVSPropertyOp52
 70
     0
102
RTVSPropertyOp53
 70
     1
102
RTVSPropertyOp54
 70
     1
102
RTVSPropertyOp55
 70
     1
102
RTVSPropertyOp56
 70
     1
102
RTVSPropertyOp57
 70
     1
102
RTVSPost2010Prop28
280
     0
102
RTVSPost2010PropOp28
 70
     1
102
RTVSPost2010Prop29
280
     1
102
RTVSPost2010PropOp29
 70
     1
102
RTVSPost2010Prop30
280
     1
102
RTVSPost2010PropOp30
 70
     1
102
RTVSPost2010Prop31
280
     0
102
RTVSPost2010PropOp31
 70
     1
102
RTVSPost2010Prop32
280
     0
102
RTVSPost2010PropOp32
 70
     1
102
RTVSPost2010Prop33
280
     0
102
RTVSPost2010PropOp33
 70
     1
102
RTVSPost2010Prop34
280
     0
102
RTVSPost2010PropOp34
 70
     1
102
RTVSPost2010Prop35
280
     0
102
RTVSPost2010PropOp35
 70
     1
102
RTVSPost2010Prop36
280
     0
102
RTVSPost2010PropOp36
 70
     1
102
RTVSPost2010Prop37
 90
       50
102
RTVSPost2010PropOp37
 70
     1
102
RTVSPost2010Prop38
140
0.0
102
RTVSPost2010PropOp38
 70
     1
102
RTVSPost2010Prop39
140
1.0
102
RTVSPost2010PropOp39
 70
     1
102
RTVSPost2010Prop40
 90
        0
102
RTVSPost2010PropOp40
 70
     1
102
RTVSPost2010Prop41ColorIndex
 90
       18
102
RTVSPost2010Prop41ColorRGB
 90
        0
102
RTVSPost2010PropOp41
 70
     1
102
RTVSPost2010Prop42
 90
       50
102
RTVSPost2010PropOp42
 70
     1
102
RTVSPost2010Prop43
 90
        3
102
RTVSPost2010PropOp43
 70
     1
102
RTVSPost2010Prop44ColorIndex
 90
        5
102
RTVSPost2010Prop44ColorRGB
 90
      255
102
RTVSPost2010PropOp44
 70
     1
102
RTVSPost2010Prop45
280
     0
102
RTVSPost2010PropOp45
 70
     1
102
RTVSPost2010Prop46
 90
       50
102
RTVSPost2010PropOp46
 70
     1
102
RTVSPost2010Prop47
 90
       50
102
RTVSPost2010PropOp47
 70
     1
102
RTVSPost2010Prop48
 90
       50
102
RTVSPost2010PropOp48
 70
     1
102
RTVSPost2010Prop49
280
     0
102
RTVSPost2010PropOp49
 70
     1
102
RTVSPost2010Prop50
 90
       50
102
RTVSPost2010PropOp50
 70
     1
102
RTVSPost2010Prop51ColorIndex
 90
      256
102
RTVSPost2010Prop51ColorRGB
 90
-16777216
102
RTVSPost2010PropOp51
 70
     0
102
RTVSPost2010Prop52
140
1.0
102
RTVSPost2010PropOp52
 70
     0
102
RTVSPost2010Prop53
 90
        2
102
RTVSPost2010PropOp53
 70
     1
102
RTVSPost2010Prop54
  1
strokes_ogs.tif
102
RTVSPost2010PropOp54
 70
     1
102
RTVSPost2010Prop55
280
     0
102
RTVSPost2010PropOp55
 70
     1
102
RTVSPost2010Prop56
140
1.0
102
RTVSPost2010PropOp56
 70
     1
102
RTVSPost2010Prop57
140
1.0
102
RTVSPost2010PropOp57
 70
     1
  0
XRECORD
  5
C95
102
{ACAD_REACTORS
330
C94
102
}
330
C94
100
AcDbXrecord
280
     1
102
RTVSPropertyOp0
 70
     1
102
RTVSPropertyOp1
 70
     1
102
RTVSPropertyOp2
 70
     1
102
RTVSPropertyOp3
 70
     1
102
RTVSPropertyOp4
 70
     1
102
RTVSPropertyOp5
 70
     1
102
RTVSPropertyOp6
 70
     1
102
RTVSPropertyOp7
 70
     1
102
RTVSPropertyOp8
 70
     1
102
RTVSPropertyOp9
 70
     1
102
RTVSPropertyOp10
 70
     1
102
RTVSPropertyOp11
 70
     1
102
RTVSPropertyOp12
 70
     1
102
RTVSPropertyOp13
 70
     1
102
RTVSPropertyOp14
 70
     1
102
RTVSPropertyOp15
 70
     1
102
RTVSPropertyOp16
 70
     1
102
RTVSPropertyOp17
 70
     1
102
RTVSPropertyOp18
 70
     1
102
RTVSPropertyOp19
 70
     1
102
RTVSPropertyOp20
 70
     1
102
RTVSPropertyOp21
 70
     1
102
RTVSPropertyOp22
 70
     1
102
RTVSPropertyOp23
 70
     1
102
RTVSPropertyOp24
 70
     1
102
RTVSPropertyOp25
 70
     1
102
RTVSPropertyOp26
 70
     1
102
RTVSPropertyOp27
 70
     1
102
RTVSPropertyOp28
 70
     1
102
RTVSPropertyOp29
 70
     1
102
RTVSPropertyOp30
 70
     1
102
RTVSPropertyOp31
 70
     1
102
RTVSPropertyOp32
 70
     1
102
RTVSPropertyOp33
 70
     1
102
RTVSPropertyOp34
 70
     1
102
RTVSPropertyOp35
 70
     1
102
RTVSPropertyOp36
 70
     1
102
RTVSPropertyOp37
 70
     1
102
RTVSPropertyOp38
 70
     1
102
RTVSPropertyOp39
 70
     1
102
RTVSPropertyOp40
 70
     1
102
RTVSPropertyOp41
 70
     1
102
RTVSPropertyOp42
 70
     1
102
RTVSPropertyOp43
 70
     1
102
RTVSPropertyOp44
 70
     1
102
RTVSPropertyOp45
 70
     1
102
RTVSPropertyOp46
 70
     1
102
RTVSPropertyOp47
 70
     1
102
RTVSPropertyOp48
 70
     1
102
RTVSPropertyOp49
 70
     1
102
RTVSPropertyOp50
 70
     1
102
RTVSPropertyOp51
 70
     0
102
RTVSPropertyOp52
 70
     0
102
RTVSPropertyOp53
 70
     1
102
RTVSPropertyOp54
 70
     1
102
RTVSPropertyOp55
 70
     1
102
RTVSPropertyOp56
 70
     1
102
RTVSPropertyOp57
 70
     1
102
RTVSPost2010Prop28
280
     0
102
RTVSPost2010PropOp28
 70
     1
102
RTVSPost2010Prop29
280
     1
102
RTVSPost2010PropOp29
 70
     1
102
RTVSPost2010Prop30
280
     1
102
RTVSPost2010PropOp30
 70
     1
102
RTVSPost2010Prop31
280
     0
102
RTVSPost2010PropOp31
 70
     1
102
RTVSPost2010Prop32
280
     0
102
RTVSPost2010PropOp32
 70
     1
102
RTVSPost2010Prop33
280
     0
102
RTVSPost2010PropOp33
 70
     1
102
RTVSPost2010Prop34
280
     0
102
RTVSPost2010PropOp34
 70
     1
102
RTVSPost2010Prop35
280
     0
102
RTVSPost2010PropOp35
 70
     1
102
RTVSPost2010Prop36
280
     0
102
RTVSPost2010PropOp36
 70
     1
102
RTVSPost2010Prop37
 90
       50
102
RTVSPost2010PropOp37
 70
     1
102
RTVSPost2010Prop38
140
0.0
102
RTVSPost2010PropOp38
 70
     1
102
RTVSPost2010Prop39
140
1.0
102
RTVSPost2010PropOp39
 70
     1
102
RTVSPost2010Prop40
 90
        0
102
RTVSPost2010PropOp40
 70
     1
102
RTVSPost2010Prop41ColorIndex
 90
       18
102
RTVSPost2010Prop41ColorRGB
 90
        0
102
RTVSPost2010PropOp41
 70
     1
102
RTVSPost2010Prop42
 90
       50
102
RTVSPost2010PropOp42
 70
     1
102
RTVSPost2010Prop43
 90
        3
102
RTVSPost2010PropOp43
 70
     1
102
RTVSPost2010Prop44ColorIndex
 90
        5
102
RTVSPost2010Prop44ColorRGB
 90
      255
102
RTVSPost2010PropOp44
 70
     1
102
RTVSPost2010Prop45
280
     0
102
RTVSPost2010PropOp45
 70
     1
102
RTVSPost2010Prop46
 90
       50
102
RTVSPost2010PropOp46
 70
     1
102
RTVSPost2010Prop47
 90
       50
102
RTVSPost2010PropOp47
 70
     1
102
RTVSPost2010Prop48
 90
       50
102
RTVSPost2010PropOp48
 70
     1
102
RTVSPost2010Prop49
280
     0
102
RTVSPost2010PropOp49
 70
     1
102
RTVSPost2010Prop50
 90
       50
102
RTVSPost2010PropOp50
 70
     1
102
RTVSPost2010Prop51ColorIndex
 90
      256
102
RTVSPost2010Prop51ColorRGB
 90
-16777216
102
RTVSPost2010PropOp51
 70
     0
102
RTVSPost2010Prop52
140
1.0
102
RTVSPost2010PropOp52
 70
     0
102
RTVSPost2010Prop53
 90
        2
102
RTVSPost2010PropOp53
 70
     1
102
RTVSPost2010Prop54
  1
strokes_ogs.tif
102
RTVSPost2010PropOp54
 70
     1
102
RTVSPost2010Prop55
280
     0
102
RTVSPost2010PropOp55
 70
     1
102
RTVSPost2010Prop56
140
1.0
102
RTVSPost2010PropOp56
 70
     1
102
RTVSPost2010Prop57
140
1.0
102
RTVSPost2010PropOp57
 70
     1
  0
XRECORD
  5
C8F
102
{ACAD_REACTORS
330
C8E
102
}
330
C8E
100
AcDbXrecord
280
     1
102
RTVSPropertyOp0
 70
     1
102
RTVSPropertyOp1
 70
     1
102
RTVSPropertyOp2
 70
     1
102
RTVSPropertyOp3
 70
     1
102
RTVSPropertyOp4
 70
     1
102
RTVSPropertyOp5
 70
     1
102
RTVSPropertyOp6
 70
     1
102
RTVSPropertyOp7
 70
     1
102
RTVSPropertyOp8
 70
     1
102
RTVSPropertyOp9
 70
     1
102
RTVSPropertyOp10
 70
     1
102
RTVSPropertyOp11
 70
     1
102
RTVSPropertyOp12
 70
     1
102
RTVSPropertyOp13
 70
     1
102
RTVSPropertyOp14
 70
     1
102
RTVSPropertyOp15
 70
     1
102
RTVSPropertyOp16
 70
     1
102
RTVSPropertyOp17
 70
     1
102
RTVSPropertyOp18
 70
     1
102
RTVSPropertyOp19
 70
     1
102
RTVSPropertyOp20
 70
     1
102
RTVSPropertyOp21
 70
     1
102
RTVSPropertyOp22
 70
     1
102
RTVSPropertyOp23
 70
     1
102
RTVSPropertyOp24
 70
     1
102
RTVSPropertyOp25
 70
     1
102
RTVSPropertyOp26
 70
     1
102
RTVSPropertyOp27
 70
     1
102
RTVSPropertyOp28
 70
     1
102
RTVSPropertyOp29
 70
     1
102
RTVSPropertyOp30
 70
     1
102
RTVSPropertyOp31
 70
     1
102
RTVSPropertyOp32
 70
     1
102
RTVSPropertyOp33
 70
     1
102
RTVSPropertyOp34
 70
     1
102
RTVSPropertyOp35
 70
     1
102
RTVSPropertyOp36
 70
     1
102
RTVSPropertyOp37
 70
     1
102
RTVSPropertyOp38
 70
     1
102
RTVSPropertyOp39
 70
     1
102
RTVSPropertyOp40
 70
     1
102
RTVSPropertyOp41
 70
     1
102
RTVSPropertyOp42
 70
     1
102
RTVSPropertyOp43
 70
     1
102
RTVSPropertyOp44
 70
     1
102
RTVSPropertyOp45
 70
     1
102
RTVSPropertyOp46
 70
     1
102
RTVSPropertyOp47
 70
     1
102
RTVSPropertyOp48
 70
     1
102
RTVSPropertyOp49
 70
     1
102
RTVSPropertyOp50
 70
     1
102
RTVSPropertyOp51
 70
     0
102
RTVSPropertyOp52
 70
     0
102
RTVSPropertyOp53
 70
     1
102
RTVSPropertyOp54
 70
     1
102
RTVSPropertyOp55
 70
     1
102
RTVSPropertyOp56
 70
     1
102
RTVSPropertyOp57
 70
     1
102
RTVSPost2010Prop28
280
     0
102
RTVSPost2010PropOp28
 70
     1
102
RTVSPost2010Prop29
280
     1
102
RTVSPost2010PropOp29
 70
     1
102
RTVSPost2010Prop30
280
     1
102
RTVSPost2010PropOp30
 70
     1
102
RTVSPost2010Prop31
280
     0
102
RTVSPost2010PropOp31
 70
     1
102
RTVSPost2010Prop32
280
     0
102
RTVSPost2010PropOp32
 70
     1
102
RTVSPost2010Prop33
280
     0
102
RTVSPost2010PropOp33
 70
     1
102
RTVSPost2010Prop34
280
     0
102
RTVSPost2010PropOp34
 70
     1
102
RTVSPost2010Prop35
280
     0
102
RTVSPost2010PropOp35
 70
     1
102
RTVSPost2010Prop36
280
     0
102
RTVSPost2010PropOp36
 70
     1
102
RTVSPost2010Prop37
 90
       50
102
RTVSPost2010PropOp37
 70
     1
102
RTVSPost2010Prop38
140
0.0
102
RTVSPost2010PropOp38
 70
     1
102
RTVSPost2010Prop39
140
1.0
102
RTVSPost2010PropOp39
 70
     1
102
RTVSPost2010Prop40
 90
        0
102
RTVSPost2010PropOp40
 70
     1
102
RTVSPost2010Prop41ColorIndex
 90
       18
102
RTVSPost2010Prop41ColorRGB
 90
        0
102
RTVSPost2010PropOp41
 70
     1
102
RTVSPost2010Prop42
 90
       50
102
RTVSPost2010PropOp42
 70
     1
102
RTVSPost2010Prop43
 90
        3
102
RTVSPost2010PropOp43
 70
     1
102
RTVSPost2010Prop44ColorIndex
 90
        5
102
RTVSPost2010Prop44ColorRGB
 90
      255
102
RTVSPost2010PropOp44
 70
     1
102
RTVSPost2010Prop45
280
     0
102
RTVSPost2010PropOp45
 70
     1
102
RTVSPost2010Prop46
 90
       50
102
RTVSPost2010PropOp46
 70
     1
102
RTVSPost2010Prop47
 90
       50
102
RTVSPost2010PropOp47
 70
     1
102
RTVSPost2010Prop48
 90
       50
102
RTVSPost2010PropOp48
 70
     1
102
RTVSPost2010Prop49
280
     0
102
RTVSPost2010PropOp49
 70
     1
102
RTVSPost2010Prop50
 90
       50
102
RTVSPost2010PropOp50
 70
     1
102
RTVSPost2010Prop51ColorIndex
 90
      256
102
RTVSPost2010Prop51ColorRGB
 90
-16777216
102
RTVSPost2010PropOp51
 70
     0
102
RTVSPost2010Prop52
140
1.0
102
RTVSPost2010PropOp52
 70
     0
102
RTVSPost2010Prop53
 90
        2
102
RTVSPost2010PropOp53
 70
     1
102
RTVSPost2010Prop54
  1
strokes_ogs.tif
102
RTVSPost2010PropOp54
 70
     1
102
RTVSPost2010Prop55
280
     0
102
RTVSPost2010PropOp55
 70
     1
102
RTVSPost2010Prop56
140
1.0
102
RTVSPost2010PropOp56
 70
     1
102
RTVSPost2010Prop57
140
1.0
102
RTVSPost2010PropOp57
 70
     1
  0
XRECORD
  5
C91
102
{ACAD_REACTORS
330
C90
102
}
330
C90
100
AcDbXrecord
280
     1
102
RTVSPropertyOp0
 70
     1
102
RTVSPropertyOp1
 70
     1
102
RTVSPropertyOp2
 70
     1
102
RTVSPropertyOp3
 70
     1
102
RTVSPropertyOp4
 70
     1
102
RTVSPropertyOp5
 70
     1
102
RTVSPropertyOp6
 70
     1
102
RTVSPropertyOp7
 70
     1
102
RTVSPropertyOp8
 70
     1
102
RTVSPropertyOp9
 70
     1
102
RTVSPropertyOp10
 70
     1
102
RTVSPropertyOp11
 70
     1
102
RTVSPropertyOp12
 70
     1
102
RTVSPropertyOp13
 70
     1
102
RTVSPropertyOp14
 70
     1
102
RTVSPropertyOp15
 70
     1
102
RTVSPropertyOp16
 70
     1
102
RTVSPropertyOp17
 70
     1
102
RTVSPropertyOp18
 70
     1
102
RTVSPropertyOp19
 70
     1
102
RTVSPropertyOp20
 70
     1
102
RTVSPropertyOp21
 70
     1
102
RTVSPropertyOp22
 70
     1
102
RTVSPropertyOp23
 70
     1
102
RTVSPropertyOp24
 70
     1
102
RTVSPropertyOp25
 70
     1
102
RTVSPropertyOp26
 70
     1
102
RTVSPropertyOp27
 70
     1
102
RTVSPropertyOp28
 70
     1
102
RTVSPropertyOp29
 70
     1
102
RTVSPropertyOp30
 70
     1
102
RTVSPropertyOp31
 70
     1
102
RTVSPropertyOp32
 70
     1
102
RTVSPropertyOp33
 70
     1
102
RTVSPropertyOp34
 70
     1
102
RTVSPropertyOp35
 70
     1
102
RTVSPropertyOp36
 70
     1
102
RTVSPropertyOp37
 70
     1
102
RTVSPropertyOp38
 70
     1
102
RTVSPropertyOp39
 70
     1
102
RTVSPropertyOp40
 70
     1
102
RTVSPropertyOp41
 70
     1
102
RTVSPropertyOp42
 70
     1
102
RTVSPropertyOp43
 70
     1
102
RTVSPropertyOp44
 70
     1
102
RTVSPropertyOp45
 70
     1
102
RTVSPropertyOp46
 70
     1
102
RTVSPropertyOp47
 70
     1
102
RTVSPropertyOp48
 70
     1
102
RTVSPropertyOp49
 70
     1
102
RTVSPropertyOp50
 70
     1
102
RTVSPropertyOp51
 70
     0
102
RTVSPropertyOp52
 70
     0
102
RTVSPropertyOp53
 70
     1
102
RTVSPropertyOp54
 70
     1
102
RTVSPropertyOp55
 70
     1
102
RTVSPropertyOp56
 70
     1
102
RTVSPropertyOp57
 70
     1
102
RTVSPost2010Prop28
280
     0
102
RTVSPost2010PropOp28
 70
     1
102
RTVSPost2010Prop29
280
     1
102
RTVSPost2010PropOp29
 70
     1
102
RTVSPost2010Prop30
280
     1
102
RTVSPost2010PropOp30
 70
     1
102
RTVSPost2010Prop31
280
     0
102
RTVSPost2010PropOp31
 70
     1
102
RTVSPost2010Prop32
280
     0
102
RTVSPost2010PropOp32
 70
     1
102
RTVSPost2010Prop33
280
     0
102
RTVSPost2010PropOp33
 70
     1
102
RTVSPost2010Prop34
280
     0
102
RTVSPost2010PropOp34
 70
     1
102
RTVSPost2010Prop35
280
     0
102
RTVSPost2010PropOp35
 70
     1
102
RTVSPost2010Prop36
280
     0
102
RTVSPost2010PropOp36
 70
     1
102
RTVSPost2010Prop37
 90
       50
102
RTVSPost2010PropOp37
 70
     1
102
RTVSPost2010Prop38
140
0.0
102
RTVSPost2010PropOp38
 70
     1
102
RTVSPost2010Prop39
140
1.0
102
RTVSPost2010PropOp39
 70
     1
102
RTVSPost2010Prop40
 90
        0
102
RTVSPost2010PropOp40
 70
     1
102
RTVSPost2010Prop41ColorIndex
 90
       18
102
RTVSPost2010Prop41ColorRGB
 90
        0
102
RTVSPost2010PropOp41
 70
     1
102
RTVSPost2010Prop42
 90
       50
102
RTVSPost2010PropOp42
 70
     1
102
RTVSPost2010Prop43
 90
        3
102
RTVSPost2010PropOp43
 70
     1
102
RTVSPost2010Prop44ColorIndex
 90
        5
102
RTVSPost2010Prop44ColorRGB
 90
      255
102
RTVSPost2010PropOp44
 70
     1
102
RTVSPost2010Prop45
280
     0
102
RTVSPost2010PropOp45
 70
     1
102
RTVSPost2010Prop46
 90
       50
102
RTVSPost2010PropOp46
 70
     1
102
RTVSPost2010Prop47
 90
       50
102
RTVSPost2010PropOp47
 70
     1
102
RTVSPost2010Prop48
 90
       50
102
RTVSPost2010PropOp48
 70
     1
102
RTVSPost2010Prop49
280
     0
102
RTVSPost2010PropOp49
 70
     1
102
RTVSPost2010Prop50
 90
       50
102
RTVSPost2010PropOp50
 70
     1
102
RTVSPost2010Prop51ColorIndex
 90
      256
102
RTVSPost2010Prop51ColorRGB
 90
-16777216
102
RTVSPost2010PropOp51
 70
     0
102
RTVSPost2010Prop52
140
1.0
102
RTVSPost2010PropOp52
 70
     0
102
RTVSPost2010Prop53
 90
        2
102
RTVSPost2010PropOp53
 70
     1
102
RTVSPost2010Prop54
  1
strokes_ogs.tif
102
RTVSPost2010PropOp54
 70
     1
102
RTVSPost2010Prop55
280
     0
102
RTVSPost2010PropOp55
 70
     1
102
RTVSPost2010Prop56
140
1.0
102
RTVSPost2010PropOp56
 70
     1
102
RTVSPost2010Prop57
140
1.0
102
RTVSPost2010PropOp57
 70
     1
  0
XRECORD
  5
C81
102
{ACAD_REACTORS
330
C80
102
}
330
C80
100
AcDbXrecord
280
     1
102
RTVSPropertyOp0
 70
     1
102
RTVSPropertyOp1
 70
     1
102
RTVSPropertyOp2
 70
     1
102
RTVSPropertyOp3
 70
     1
102
RTVSPropertyOp4
 70
     1
102
RTVSPropertyOp5
 70
     1
102
RTVSPropertyOp6
 70
     1
102
RTVSPropertyOp7
 70
     1
102
RTVSPropertyOp8
 70
     1
102
RTVSPropertyOp9
 70
     1
102
RTVSPropertyOp10
 70
     1
102
RTVSPropertyOp11
 70
     1
102
RTVSPropertyOp12
 70
     1
102
RTVSPropertyOp13
 70
     1
102
RTVSPropertyOp14
 70
     1
102
RTVSPropertyOp15
 70
     1
102
RTVSPropertyOp16
 70
     1
102
RTVSPropertyOp17
 70
     1
102
RTVSPropertyOp18
 70
     1
102
RTVSPropertyOp19
 70
     1
102
RTVSPropertyOp20
 70
     1
102
RTVSPropertyOp21
 70
     1
102
RTVSPropertyOp22
 70
     1
102
RTVSPropertyOp23
 70
     1
102
RTVSPropertyOp24
 70
     1
102
RTVSPropertyOp25
 70
     1
102
RTVSPropertyOp26
 70
     1
102
RTVSPropertyOp27
 70
     1
102
RTVSPropertyOp28
 70
     1
102
RTVSPropertyOp29
 70
     1
102
RTVSPropertyOp30
 70
     1
102
RTVSPropertyOp31
 70
     1
102
RTVSPropertyOp32
 70
     1
102
RTVSPropertyOp33
 70
     1
102
RTVSPropertyOp34
 70
     1
102
RTVSPropertyOp35
 70
     1
102
RTVSPropertyOp36
 70
     1
102
RTVSPropertyOp37
 70
     1
102
RTVSPropertyOp38
 70
     1
102
RTVSPropertyOp39
 70
     1
102
RTVSPropertyOp40
 70
     1
102
RTVSPropertyOp41
 70
     1
102
RTVSPropertyOp42
 70
     1
102
RTVSPropertyOp43
 70
     1
102
RTVSPropertyOp44
 70
     1
102
RTVSPropertyOp45
 70
     1
102
RTVSPropertyOp46
 70
     1
102
RTVSPropertyOp47
 70
     1
102
RTVSPropertyOp48
 70
     1
102
RTVSPropertyOp49
 70
     1
102
RTVSPropertyOp50
 70
     1
102
RTVSPropertyOp51
 70
     0
102
RTVSPropertyOp52
 70
     0
102
RTVSPropertyOp53
 70
     1
102
RTVSPropertyOp54
 70
     1
102
RTVSPropertyOp55
 70
     1
102
RTVSPropertyOp56
 70
     1
102
RTVSPropertyOp57
 70
     1
102
RTVSPost2010Prop28
280
     0
102
RTVSPost2010PropOp28
 70
     1
102
RTVSPost2010Prop29
280
     1
102
RTVSPost2010PropOp29
 70
     1
102
RTVSPost2010Prop30
280
     1
102
RTVSPost2010PropOp30
 70
     1
102
RTVSPost2010Prop31
280
     0
102
RTVSPost2010PropOp31
 70
     1
102
RTVSPost2010Prop32
280
     0
102
RTVSPost2010PropOp32
 70
     1
102
RTVSPost2010Prop33
280
     0
102
RTVSPost2010PropOp33
 70
     1
102
RTVSPost2010Prop34
280
     0
102
RTVSPost2010PropOp34
 70
     1
102
RTVSPost2010Prop35
280
     0
102
RTVSPost2010PropOp35
 70
     1
102
RTVSPost2010Prop36
280
     0
102
RTVSPost2010PropOp36
 70
     1
102
RTVSPost2010Prop37
 90
       50
102
RTVSPost2010PropOp37
 70
     1
102
RTVSPost2010Prop38
140
0.0
102
RTVSPost2010PropOp38
 70
     1
102
RTVSPost2010Prop39
140
1.0
102
RTVSPost2010PropOp39
 70
     1
102
RTVSPost2010Prop40
 90
        0
102
RTVSPost2010PropOp40
 70
     1
102
RTVSPost2010Prop41ColorIndex
 90
       18
102
RTVSPost2010Prop41ColorRGB
 90
        0
102
RTVSPost2010PropOp41
 70
     1
102
RTVSPost2010Prop42
 90
       50
102
RTVSPost2010PropOp42
 70
     1
102
RTVSPost2010Prop43
 90
        3
102
RTVSPost2010PropOp43
 70
     1
102
RTVSPost2010Prop44ColorIndex
 90
        5
102
RTVSPost2010Prop44ColorRGB
 90
      255
102
RTVSPost2010PropOp44
 70
     1
102
RTVSPost2010Prop45
280
     0
102
RTVSPost2010PropOp45
 70
     1
102
RTVSPost2010Prop46
 90
       50
102
RTVSPost2010PropOp46
 70
     1
102
RTVSPost2010Prop47
 90
       50
102
RTVSPost2010PropOp47
 70
     1
102
RTVSPost2010Prop48
 90
       50
102
RTVSPost2010PropOp48
 70
     1
102
RTVSPost2010Prop49
280
     0
102
RTVSPost2010PropOp49
 70
     1
102
RTVSPost2010Prop50
 90
       50
102
RTVSPost2010PropOp50
 70
     1
102
RTVSPost2010Prop51ColorIndex
 90
      256
102
RTVSPost2010Prop51ColorRGB
 90
-16777216
102
RTVSPost2010PropOp51
 70
     0
102
RTVSPost2010Prop52
140
1.0
102
RTVSPost2010PropOp52
 70
     0
102
RTVSPost2010Prop53
 90
        2
102
RTVSPost2010PropOp53
 70
     1
102
RTVSPost2010Prop54
  1
strokes_ogs.tif
102
RTVSPost2010PropOp54
 70
     1
102
RTVSPost2010Prop55
280
     0
102
RTVSPost2010PropOp55
 70
     1
102
RTVSPost2010Prop56
140
1.0
102
RTVSPost2010PropOp56
 70
     1
102
RTVSPost2010Prop57
140
1.0
102
RTVSPost2010PropOp57
 70
     1
  0
XRECORD
  5
C73
102
{ACAD_REACTORS
330
C72
102
}
330
C72
100
AcDbXrecord
280
     1
102
RTVSPropertyOp0
 70
     1
102
RTVSPropertyOp1
 70
     1
102
RTVSPropertyOp2
 70
     1
102
RTVSPropertyOp3
 70
     1
102
RTVSPropertyOp4
 70
     1
102
RTVSPropertyOp5
 70
     1
102
RTVSPropertyOp6
 70
     1
102
RTVSPropertyOp7
 70
     1
102
RTVSPropertyOp8
 70
     1
102
RTVSPropertyOp9
 70
     1
102
RTVSPropertyOp10
 70
     1
102
RTVSPropertyOp11
 70
     1
102
RTVSPropertyOp12
 70
     1
102
RTVSPropertyOp13
 70
     1
102
RTVSPropertyOp14
 70
     1
102
RTVSPropertyOp15
 70
     1
102
RTVSPropertyOp16
 70
     1
102
RTVSPropertyOp17
 70
     1
102
RTVSPropertyOp18
 70
     1
102
RTVSPropertyOp19
 70
     1
102
RTVSPropertyOp20
 70
     1
102
RTVSPropertyOp21
 70
     1
102
RTVSPropertyOp22
 70
     1
102
RTVSPropertyOp23
 70
     1
102
RTVSPropertyOp24
 70
     1
102
RTVSPropertyOp25
 70
     1
102
RTVSPropertyOp26
 70
     1
102
RTVSPropertyOp27
 70
     1
102
RTVSPropertyOp28
 70
     1
102
RTVSPropertyOp29
 70
     1
102
RTVSPropertyOp30
 70
     1
102
RTVSPropertyOp31
 70
     1
102
RTVSPropertyOp32
 70
     1
102
RTVSPropertyOp33
 70
     1
102
RTVSPropertyOp34
 70
     1
102
RTVSPropertyOp35
 70
     1
102
RTVSPropertyOp36
 70
     1
102
RTVSPropertyOp37
 70
     1
102
RTVSPropertyOp38
 70
     1
102
RTVSPropertyOp39
 70
     1
102
RTVSPropertyOp40
 70
     1
102
RTVSPropertyOp41
 70
     1
102
RTVSPropertyOp42
 70
     1
102
RTVSPropertyOp43
 70
     1
102
RTVSPropertyOp44
 70
     1
102
RTVSPropertyOp45
 70
     1
102
RTVSPropertyOp46
 70
     1
102
RTVSPropertyOp47
 70
     1
102
RTVSPropertyOp48
 70
     1
102
RTVSPropertyOp49
 70
     1
102
RTVSPropertyOp50
 70
     1
102
RTVSPropertyOp51
 70
     0
102
RTVSPropertyOp52
 70
     0
102
RTVSPropertyOp53
 70
     1
102
RTVSPropertyOp54
 70
     1
102
RTVSPropertyOp55
 70
     1
102
RTVSPropertyOp56
 70
     1
102
RTVSPropertyOp57
 70
     1
102
RTVSPost2010Prop28
280
     0
102
RTVSPost2010PropOp28
 70
     1
102
RTVSPost2010Prop29
280
     1
102
RTVSPost2010PropOp29
 70
     1
102
RTVSPost2010Prop30
280
     1
102
RTVSPost2010PropOp30
 70
     1
102
RTVSPost2010Prop31
280
     0
102
RTVSPost2010PropOp31
 70
     1
102
RTVSPost2010Prop32
280
     0
102
RTVSPost2010PropOp32
 70
     1
102
RTVSPost2010Prop33
280
     0
102
RTVSPost2010PropOp33
 70
     1
102
RTVSPost2010Prop34
280
     0
102
RTVSPost2010PropOp34
 70
     1
102
RTVSPost2010Prop35
280
     0
102
RTVSPost2010PropOp35
 70
     1
102
RTVSPost2010Prop36
280
     0
102
RTVSPost2010PropOp36
 70
     1
102
RTVSPost2010Prop37
 90
       50
102
RTVSPost2010PropOp37
 70
     1
102
RTVSPost2010Prop38
140
0.0
102
RTVSPost2010PropOp38
 70
     1
102
RTVSPost2010Prop39
140
1.0
102
RTVSPost2010PropOp39
 70
     1
102
RTVSPost2010Prop40
 90
        0
102
RTVSPost2010PropOp40
 70
     1
102
RTVSPost2010Prop41ColorIndex
 90
       18
102
RTVSPost2010Prop41ColorRGB
 90
        0
102
RTVSPost2010PropOp41
 70
     1
102
RTVSPost2010Prop42
 90
       50
102
RTVSPost2010PropOp42
 70
     1
102
RTVSPost2010Prop43
 90
        3
102
RTVSPost2010PropOp43
 70
     1
102
RTVSPost2010Prop44ColorIndex
 90
        5
102
RTVSPost2010Prop44ColorRGB
 90
      255
102
RTVSPost2010PropOp44
 70
     1
102
RTVSPost2010Prop45
280
     0
102
RTVSPost2010PropOp45
 70
     1
102
RTVSPost2010Prop46
 90
       50
102
RTVSPost2010PropOp46
 70
     1
102
RTVSPost2010Prop47
 90
       50
102
RTVSPost2010PropOp47
 70
     1
102
RTVSPost2010Prop48
 90
       50
102
RTVSPost2010PropOp48
 70
     1
102
RTVSPost2010Prop49
280
     0
102
RTVSPost2010PropOp49
 70
     1
102
RTVSPost2010Prop50
 90
       50
102
RTVSPost2010PropOp50
 70
     1
102
RTVSPost2010Prop51ColorIndex
 90
      256
102
RTVSPost2010Prop51ColorRGB
 90
-16777216
102
RTVSPost2010PropOp51
 70
     0
102
RTVSPost2010Prop52
140
1.0
102
RTVSPost2010PropOp52
 70
     0
102
RTVSPost2010Prop53
 90
        2
102
RTVSPost2010PropOp53
 70
     1
102
RTVSPost2010Prop54
  1
strokes_ogs.tif
102
RTVSPost2010PropOp54
 70
     1
102
RTVSPost2010Prop55
280
     0
102
RTVSPost2010PropOp55
 70
     1
102
RTVSPost2010Prop56
140
1.0
102
RTVSPost2010PropOp56
 70
     1
102
RTVSPost2010Prop57
140
1.0
102
RTVSPost2010PropOp57
 70
     1
  0
XRECORD
  5
C93
102
{ACAD_REACTORS
330
C92
102
}
330
C92
100
AcDbXrecord
280
     1
102
RTVSPropertyOp0
 70
     1
102
RTVSPropertyOp1
 70
     1
102
RTVSPropertyOp2
 70
     1
102
RTVSPropertyOp3
 70
     1
102
RTVSPropertyOp4
 70
     1
102
RTVSPropertyOp5
 70
     1
102
RTVSPropertyOp6
 70
     1
102
RTVSPropertyOp7
 70
     1
102
RTVSPropertyOp8
 70
     1
102
RTVSPropertyOp9
 70
     1
102
RTVSPropertyOp10
 70
     1
102
RTVSPropertyOp11
 70
     1
102
RTVSPropertyOp12
 70
     1
102
RTVSPropertyOp13
 70
     1
102
RTVSPropertyOp14
 70
     1
102
RTVSPropertyOp15
 70
     1
102
RTVSPropertyOp16
 70
     1
102
RTVSPropertyOp17
 70
     1
102
RTVSPropertyOp18
 70
     1
102
RTVSPropertyOp19
 70
     1
102
RTVSPropertyOp20
 70
     1
102
RTVSPropertyOp21
 70
     1
102
RTVSPropertyOp22
 70
     1
102
RTVSPropertyOp23
 70
     1
102
RTVSPropertyOp24
 70
     1
102
RTVSPropertyOp25
 70
     1
102
RTVSPropertyOp26
 70
     1
102
RTVSPropertyOp27
 70
     1
102
RTVSPropertyOp28
 70
     1
102
RTVSPropertyOp29
 70
     1
102
RTVSPropertyOp30
 70
     1
102
RTVSPropertyOp31
 70
     1
102
RTVSPropertyOp32
 70
     1
102
RTVSPropertyOp33
 70
     1
102
RTVSPropertyOp34
 70
     1
102
RTVSPropertyOp35
 70
     1
102
RTVSPropertyOp36
 70
     1
102
RTVSPropertyOp37
 70
     1
102
RTVSPropertyOp38
 70
     1
102
RTVSPropertyOp39
 70
     1
102
RTVSPropertyOp40
 70
     1
102
RTVSPropertyOp41
 70
     1
102
RTVSPropertyOp42
 70
     1
102
RTVSPropertyOp43
 70
     1
102
RTVSPropertyOp44
 70
     1
102
RTVSPropertyOp45
 70
     1
102
RTVSPropertyOp46
 70
     1
102
RTVSPropertyOp47
 70
     1
102
RTVSPropertyOp48
 70
     1
102
RTVSPropertyOp49
 70
     1
102
RTVSPropertyOp50
 70
     1
102
RTVSPropertyOp51
 70
     0
102
RTVSPropertyOp52
 70
     0
102
RTVSPropertyOp53
 70
     1
102
RTVSPropertyOp54
 70
     1
102
RTVSPropertyOp55
 70
     1
102
RTVSPropertyOp56
 70
     1
102
RTVSPropertyOp57
 70
     1
102
RTVSPost2010Prop28
280
     0
102
RTVSPost2010PropOp28
 70
     1
102
RTVSPost2010Prop29
280
     1
102
RTVSPost2010PropOp29
 70
     1
102
RTVSPost2010Prop30
280
     1
102
RTVSPost2010PropOp30
 70
     1
102
RTVSPost2010Prop31
280
     0
102
RTVSPost2010PropOp31
 70
     1
102
RTVSPost2010Prop32
280
     0
102
RTVSPost2010PropOp32
 70
     1
102
RTVSPost2010Prop33
280
     0
102
RTVSPost2010PropOp33
 70
     1
102
RTVSPost2010Prop34
280
     0
102
RTVSPost2010PropOp34
 70
     1
102
RTVSPost2010Prop35
280
     0
102
RTVSPost2010PropOp35
 70
     1
102
RTVSPost2010Prop36
280
     0
102
RTVSPost2010PropOp36
 70
     1
102
RTVSPost2010Prop37
 90
       50
102
RTVSPost2010PropOp37
 70
     1
102
RTVSPost2010Prop38
140
0.0
102
RTVSPost2010PropOp38
 70
     1
102
RTVSPost2010Prop39
140
1.0
102
RTVSPost2010PropOp39
 70
     1
102
RTVSPost2010Prop40
 90
        0
102
RTVSPost2010PropOp40
 70
     1
102
RTVSPost2010Prop41ColorIndex
 90
       18
102
RTVSPost2010Prop41ColorRGB
 90
        0
102
RTVSPost2010PropOp41
 70
     1
102
RTVSPost2010Prop42
 90
       50
102
RTVSPost2010PropOp42
 70
     1
102
RTVSPost2010Prop43
 90
        3
102
RTVSPost2010PropOp43
 70
     1
102
RTVSPost2010Prop44ColorIndex
 90
        5
102
RTVSPost2010Prop44ColorRGB
 90
      255
102
RTVSPost2010PropOp44
 70
     1
102
RTVSPost2010Prop45
280
     0
102
RTVSPost2010PropOp45
 70
     1
102
RTVSPost2010Prop46
 90
       50
102
RTVSPost2010PropOp46
 70
     1
102
RTVSPost2010Prop47
 90
       50
102
RTVSPost2010PropOp47
 70
     1
102
RTVSPost2010Prop48
 90
       50
102
RTVSPost2010PropOp48
 70
     1
102
RTVSPost2010Prop49
280
     0
102
RTVSPost2010PropOp49
 70
     1
102
RTVSPost2010Prop50
 90
       50
102
RTVSPost2010PropOp50
 70
     1
102
RTVSPost2010Prop51ColorIndex
 90
      256
102
RTVSPost2010Prop51ColorRGB
 90
-16777216
102
RTVSPost2010PropOp51
 70
     0
102
RTVSPost2010Prop52
140
1.0
102
RTVSPost2010PropOp52
 70
     0
102
RTVSPost2010Prop53
 90
        2
102
RTVSPost2010PropOp53
 70
     1
102
RTVSPost2010Prop54
  1
strokes_ogs.tif
102
RTVSPost2010PropOp54
 70
     1
102
RTVSPost2010Prop55
280
     0
102
RTVSPost2010PropOp55
 70
     1
102
RTVSPost2010Prop56
140
1.0
102
RTVSPost2010PropOp56
 70
     1
102
RTVSPost2010Prop57
140
1.0
102
RTVSPost2010PropOp57
 70
     1
  0
ENDSEC
  0
EOF
